» » »

The Growlers - Dull Boy Bass

Artists:  A B C D E F G H I J K L M N O P Q R S T U V W X Y Z # 

Dull Boy Bass

(ver. 1) Click to play this song!
The Growlers
 Rating:
4.3/5 (23 votes)

 Dull Boy lessons Tabs too difficult? Try these video lessons and learn fast
 
                [Intro and Verse]

G|------------------------------|----------------------------------|
D|---------------3--------------|----------------------------------|  x2
A|-------4--4----------------3--|-4--4------3--4--4------6---------|
E|-------------------4--4-------|---------4------------------------|


G|------------------------------|----------------------------------|
D|--------------3---------------|-----------3--------3-3-3-1-------|
A|-------4--4-----------------3-|--------4-------------------------|
E|-------------------4--4-------|-----6----------------------------|

G|------------------------------|----------------------------------|
D|---------------3--------------|-------------------3--------------|  
A|-------4--4----------------3--|-4--4--------3-4-6---4------------|
E|-------------------4--4-------|-----------4----------------------|


[Chorus]

G|--------------------------|------------------|-------------------|------------|
D|---3--3-------3--3--------|--------3---------|-------------------|--3---------|
A|----------3----------3/1--|--1--1-----1--1---|-6--6--4--6--6---4-|6---6-4-4/1-|
E|--------------------------|------------------|-------------------|------------|


[Interlude]

G|------------------------------|-----------------------------|
D|---------------3--------------|-----------------------------|  x3
A|-------4--4----------------3--|-----4--6--8-8-8--6----------|
E|-------------------4--4-------|--6--------------------------|

G|------------------------------|----------------------|-----------------------|
D|---------------3--------------|----------------------|--3--3-----3--3--------|
A|-------4--4---------------3---|----------------------|--------3--------3-----|
E|-------------------4--4-------|----6--6--4--6--6--4--|-----------------------|


[Extended Interlude] (2:25)

G|--------------------|--------------------|----------------------|-------------------|---------------------|
D|--------------------|--3--3-----3--3-----|---------8---------8--|-------------------|----3-----------3----|
A|--------------------|--------3--------3--|----------------------|--6--6--4--6--6--4-|-6-----6--4--6-----6-|
E|--6--6--4--6--6--4--|--------------------|---6--6-----6--6------|-------------------|---------------------|             
Submit corrections


        Dull Boy lessons Hard to play? Try these video lessons and learn fast Dull Boy lessons
        
↑ Back to top | Tablatures and chords for acoustic guitar and electric guitar, ukulele, drums are parodies/interpretations of the original songs. You may use it for private study, scholarship, research or language learning purposes only