Home » T » The Growlers »

The Growlers - Beach Rats Bass

Artists:  A B C D E F G H I J K L M N O P Q R S T U V W X Y Z # 

Beach Rats Bass

(ver. 1) Click to play this song!
The Growlers
[Intro/Verse 1]

G|-----------------------|
D|--------4---8-8-6h8-6-8|
A|6-6-4h6---6------------|
E|-----------------------| x2

G|-------------------------|
D|--------4---8-8-6h8-6-8-4|
A|6-6-4h6---6--------------|
E|-------------------------|

G|-----------------------|
D|--------4---8-8-6h8-6-8|
A|6-6-4h6---6------------|
E|-----------------------| x2

[Chorus]

G|-----------------------------|
D|6-6-6h8-6-6-0h4-4-4---------4|
A|--------------------6-4-4h6--|
E|-----------------------------| x2

[Verse 2]

G|-----------------------|
D|--------4---8-8-6h8-6-8|
A|6-6-4h6---6------------|
E|-----------------------|

G|-------------------------|
D|--------4---8-8-6h8-6-8-4|
A|6-6-4h6---6--------------|
E|-------------------------|

G|-----------------------|
D|--------4---8-8-6h8-6-8|
A|6-6-4h6---6------------|
E|-----------------------| x2

[Chorus]

G|-----------------------------|
D|6-6-6h8-6-6-0h4-4-4---------4|
A|--------------------6-4-4h6--|
E|-----------------------------| x2

[Bridge]

G|-----------------------------------------------|
D|----------------8-8-8-8-8-8-8-8-6-6-6-6-6-6-6-6|
A|6-6-6-6-6-6-6-6--------------------------------|
E|-----------------------------------------------|

G|-----------------------------------------------|
D|----------------8-8-8-8-8-8-8-8-6-6-6-6-6-6-6-8|
A|6-6-6-6-6-6-6-6--------------------------------|
E|-----------------------------------------------|

[Verse 3]

G|-----------------------|
D|--------4---8-8-6h8-6-8|
A|6-6-4h6---6------------|
E|-----------------------|

G|-------------------------|
D|--------4---8-8-6h8-6-8-4|
A|6-6-4h6---6--------------|
E|-------------------------|

G|-----------------------|
D|--------4---8-8-6h8-6-8|
A|6-6-4h6---6------------|
E|-----------------------|

[Chorus]

G|-----------------------------|
D|6-6-6h8-6-6-0h4-4-4---------4|
A|--------------------6-4-4h6--|
E|-----------------------------| x2

[Bridge]

G|-----------------------------------------------|
D|----------------8-8-8-8-8-8-8-8-6-6-6-6-6-6-6-6|
A|6-6-6-6-6-6-6-6--------------------------------|
E|-----------------------------------------------| x3

G|-----------------------------------------------|
D|----------------8-8-8-8-8-8-8-8-6-6-6-6-6-6-6-8|
A|6-6-6-6-6-6-6-6--------------------------------|
E|-----------------------------------------------|

[Verse 3]

G|-----------------------|
D|--------4---8-8-6h8-6-8|
A|6-6-4h6---6------------|
E|-----------------------|

G|-------------------------|
D|--------4---8-8-6h8-6-8-4|
A|6-6-4h6---6--------------|
E|-------------------------|

G|-----------------------|
D|--------4---8-8-6h8-6-8|
A|6-6-4h6---6------------|
E|-----------------------| x2

[Chorus]

G|-----------------------------|
D|6-6-6h8-6-6-0h4-4-4---------4|
A|--------------------6-4-4h6--|
E|-----------------------------| x2

[Outro]

G|-----------------------------|
D|-----------------------------|
A|6-6-6-6---------6-6-6-6------|
E|--------7-7-2-2---------7-7-6|

G|-----------------|
D|------8----------|
A|6-6-6---9-------4|
E|----------6-6-6--|

G|-----------------|
D|------8----------|
A|6-6-6---9-------9|
E|----------6-6-6--|

G|-----------------------------------|
D|------8----------------------------|
A|6-6-6---9-------4-----------------4|
E|----------6-6-6---2-2-1-2-4-6-6-6--|

G|-----------------|
D|------8----------|
A|6-6-6---9-------4|
E|----------6-6-6--|

G|-----------------|
D|------8----------|
A|6-6-6---9-------9|
E|----------6-6-6--|

G|-------------------------------------------------------|
D|------8------------------------------------------------|
A|6-6-6---9---------4-4-4-4-4-6-4---------------------4-6|
E|----------6-6-4-6---------------6-4-2-2-1-2-4-6-6-6----|

            
Submit corrections

↑ Back to top | Tablatures and chords for acoustic guitar and electric guitar, ukulele, drums are parodies/interpretations of the original songs. You may use it for private study, scholarship, research or language learning purposes only