Home » T » The Griswolds »

The Griswolds - Beware The Dog Tabs

Artists:  A B C D E F G H I J K L M N O P Q R S T U V W X Y Z # 

Beware The Dog Tabs

(ver. 1) Click to play this song!
The Griswolds
Tuning:Standard

e|------------------------------12\\\\---------------------------------------|
B|-------------0------------0----------------0------------0------------------|
G|-----------1---1--------1---1------------1---1--------1---1----9--9--9--8--|
D|---------2------4-2-222---------------2-------4-2-222-------4--11-11-11-9--|
A|---------------------------------------------------------------------------|
E|---------------------------------------------------------------------------|

e|---------------------------------------------------------------------------|
B|---------------------------------------------------------------------------|
G|---666-4-2-1---------------------------------------------------------------|
D|---777-6-4-2---------------------------------------------------------------|
A|---------------------------------------------------------------------------|
E|---------------------------------------------------------------------------|
            
Submit corrections

↑ Back to top | Tablatures and chords for acoustic guitar and electric guitar, ukulele, drums are parodies/interpretations of the original songs. You may use it for private study, scholarship, research or language learning purposes only