» » »

The Glorious Sons - Sawed Off Shotgun Chords

Artists:  A B C D E F G H I J K L M N O P Q R S T U V W X Y Z # 

Sawed Off Shotgun Chords

(ver. 1) Click to play this song!
The Glorious Sons
 Rating:
4.3/5 (26 votes)

 Sawed Off Shotgun lessons Tabs too difficult? Try these video lessons and learn fast
 
                [Verse] x2
e|--------------------------|--------------------------|
B|--------------------------|--------------------------|
G|--------------------------|--------------------------|
D|--9--9----------9--9------|---9--9-------------------|
A|--------11---9--------11--|-9------11---9---12--12---|
E|--------------------------|--------------------------|

e|--------------------------|--------------------------|
B|--------------------------|--------------------------|
G|--------------------------|--------------------------|
D|--9--9----------9--9------|---9--9-------------------|
A|--------11---9--------11--|-9------11---9---12--12---|
E|--------------------------|--------------------------|
 
e|--------------------------|--------------------------|
B|--------------------------|--------------------------|
G|--9--9----------9--9------|---9--9-------------------|
D|--------11---9--------11--|-9------11---9---11--11---|
A|--------------------------|--------------------------|
E|--------------------------|--------------------------|
 
e|--------------------------|--------------------------|
B|--------------------------|--------------------------|
G|--9--9----------9--9------|---9--9-------------------|
D|--------11---9--------11--|-9------11---9---11--9----|
A|--------------------------|--------------------------|
E|--------------------------|--------------------------|

Mother I don't wanna take my medicine
24 years in the gutter again, I'm losing it
I'm losing it
Everybody's acting like they're all alright
I can barely get myself to sleep at night,
I'm sick of it, yeah, I'm sick of it

[Chorus]
    E            A
e|--0------------0------|
B|--0------------2------|
G|--1------------2------|
D|--2------------2------|
A|--2------------0------|
E|--0-------------------|

E                                                                   A
Yeah, they sent the taxman, I lost my job, and You got hooked on oxycodone
A
They shut the lights off, They took the car, and I bought a sawed-off shotgun
E                                                                   A
Yeah, they sent the taxman, I lost my job, and You got hooked on oxycodone
A
They shut the lights off, They took the car, and I bought a sawed-off shotgun

[Verse] x2
e|--------------------------|--------------------------|
B|--------------------------|--------------------------|
G|--------------------------|--------------------------|
D|--9--9----------9--9------|---9--9-------------------|
A|--------11---9--------11--|-9------11---9---12--12---|
E|--------------------------|--------------------------|
 
e|--------------------------|--------------------------|
B|--------------------------|--------------------------|
G|--------------------------|--------------------------|
D|--9--9----------9--9------|---9--9-------------------|
A|--------11---9--------11--|-9------11---9---12--12---|
E|--------------------------|--------------------------|
 
e|--------------------------|--------------------------|
B|--------------------------|--------------------------|
G|--9--9----------9--9------|---9--9-------------------|
D|--------11---9--------11--|-9------11---9---11--11---|
A|--------------------------|--------------------------|
E|--------------------------|--------------------------|
 
e|--------------------------|--------------------------|
B|--------------------------|--------------------------|
G|--9--9----------9--9------|---9--9-------------------|
D|--------11---9--------11--|-9------11---9---11--9----|
A|--------------------------|--------------------------|
E|--------------------------|--------------------------|

I'd rather be crazy than to take these pills
I'm sick of being okay against my will
I'm losing it, I'm losing it

Ain't a thing in this world that I'm gonna miss
It's all fake smiles and leather jackets
We're full of it, yeah we're full of sh*t

[Pre-Chorus]
Let chords ring out
e|----------------------------------------|
B|--10------------12------------14--------|
G|--11------------13------------14--------|
D|--11------------13------------14--------|
A|--9-------------11------------12--------|
E|----------------------------------------|
I don't know who to trust

[Chorus]
    E            A
e|--0------------0------|
B|--0------------2------|
G|--1------------2------|
D|--2------------2------|
A|--2------------0------|
E|--0-------------------|

E                                                                   A
Yeah, they sent the taxman, I lost my job, and You got hooked on oxycodone
A
They shut the lights off, They took the car, and I bought a sawed-off shotgun
E                                                                   A
Yeah, they sent the taxman, I lost my job, and You got hooked on oxycodone
A
They shut the lights off, They took the car, and I bought a sawed-off shotgun

[Solo]
e|--------------------------------|-----------------------------------|
B|--------------------------------|-----------------------------------|
G|--14b--14-14-14-14-14-14br-13~--|----14b--14-14-14-14-14-14br-13~---|
D|--------------------------------|-----------------------------------|
A|--------------------------------|-----------------------------------|
E|--------------------------------|-----------------------------------|

e|-------------------------------|
B|-------------------------------|
G|--11h13---------11h13----------|
D|---------11~-----------11~-----|
A|-------------------------------|
E|-------------------------------|

e|--------------------------------|-----------------------------------|
B|--------------------------------|------------------14b-14-14-14-14--|
G|--14b--14-14-14-14-14-14b--13~--|----14b--14-14-14------------------|
D|--------------------------------|-----------------------------------|
A|--------------------------------|-----------------------------------|
E|--------------------------------|-----------------------------------|

e|-------------------------------|
B|-------------------------------|
G|--11h13---------11h13----------|
D|---------11~-----------11~-----|
A|-------------------------------|
E|-------------------------------|

[Pre-Chorus]
Let chords ring out                     x2
e|----------------------------------------|
B|--10------------12------------14--------|
G|--11------------13------------14--------|
D|--11------------13------------14--------|
A|--9-------------11------------12--------|
E|----------------------------------------|

I don't know who to trust
Maybe people like us

N.C.
Yeah, they sent the taxman
I lost my job, and
You got hooked on oxycodone
They shut the lights off
They took the car, and
I bought a sawed-off shotgun

[Chorus]
    E            A
e|--0------------0------|
B|--0------------2------|
G|--1------------2------|
D|--2------------2------|
A|--2------------0------|
E|--0-------------------|

E                                                                   A
Yeah, they sent the taxman, I lost my job, and You got hooked on oxycodone
A
They shut the lights off, They took the car, and I bought a sawed-off shotgun
E                                                                   A
Yeah, they sent the taxman, I lost my job, and You got hooked on oxycodone
A
They shut the lights off, They took the car, and I bought a sawed-off shotgun

            
Submit corrections


        Sawed Off Shotgun lessons Hard to play? Try these video lessons and learn fast Sawed Off Shotgun lessons
        
↑ Back to top | Tablatures and chords for acoustic guitar and electric guitar, ukulele, drums are parodies/interpretations of the original songs. You may use it for private study, scholarship, research or language learning purposes only