» » »

The Gladiators - Soul Rebel Bass

Artists:  A B C D E F G H I J K L M N O P Q R S T U V W X Y Z # 

Soul Rebel Bass

(ver. 1) Click to play this song!
The Gladiators
 Rating:
4/5 (4 votes)

 Soul Rebel lessons Tabs too difficult? Try these video lessons and learn fast
 
                

Intro:
|-----------------|
|-----------------|
|-----3-------3---|
|-5-------5-------|

|---------------------------------|---------------------------------|
|---------------------------3-----|---------------------------3-----|
|-5---5---5-------------3-5---5-3-|-5-5---5-5-------------3-5---5---|
|---------------------------------|---------------------------------|

|---------------------------------|---------------------------------|
|---------------------------------|---------------------------------|
|-3---3---3-----------------------|-3-3---3-3-----------3-------3---|
|---------------------------------|-----------------5-------5-------|


Chorus:
|---------------------------------|---------------------------------|
|---------------------------------|---------------------------------|
|-5---5---5------------------(3)--|-5-5---5-5-------------------5---|
|------------------------(5)------|-------------------------5-------|

|---------------------------------|---------------------------------|
|---------------------------------|---------------------------------|
|-3---3---3-----------------------|-3-3---3-3-----------3-------3---|
|---------------------------------|-----------------5-------5-------|


Verse:
|---------------------------------|---------------------------------|
|---------------------------------|---------------------------------|
|-3---3---3-----------------------|-3-3---3-3-------------------3---|
|-------------------------3---5---|-------------------------5-------|

|---------------------------------|---------------------------------|
|---------------------------------|---------------------------------|
|-5---5---5-------------------3---|-5-5---5-5-------------------3---|
|-------------------------5-------|-------------------------5-------|

|---------------------------------|---------------------------------|
|-3---3---3-------------------3---|-5---5---5-------------5-----5---|
|-------------------------3-------|-------------------------5-------|
|---------------------------------|---------------------------------|

|---------------------------------|---------------------------------|
|---------------------------------|---------------------------------|
|-3---3---3-----------------------|-3-3---3-3-----------3-------3---|
|-------------------------3---5---|-----------------5-------5-------|
            
Submit corrections


        Soul Rebel lessons Hard to play? Try these video lessons and learn fast Soul Rebel lessons
        
↑ Back to top | Tablatures and chords for acoustic guitar and electric guitar, ukulele, drums are parodies/interpretations of the original songs. You may use it for private study, scholarship, research or language learning purposes only