» » »

The Gladiators - Dreadlocks The Time Is Now Bass

Artists:  A B C D E F G H I J K L M N O P Q R S T U V W X Y Z # 

Dreadlocks The Time Is Now Bass

(ver. 1) Click to play this song!
The Gladiators
 Rating:
4/5 (4 votes)

 Dreadlocks The Time Is Now lessons Tabs too difficult? Try these video lessons and learn fast
 
                Dreadlocks the time is now


Intro - Verse :
|-1-------------------------------|-1-------------------------------|
|-------------------------------1-|---------------------------------|
|---------------------------------|---------------------------------|
|-----4---------2-4-4---2-4-4-----|-----4---------2-4-4---2-4-4-----|

|---------------------------------|-1-------------------------------|
|-2---------------4-4-2---4-----1-|-------------------------------1-|
|-----4-1---------------4---------|---------------------------------|
|---------0-----------------------|-----4---------2-4-4---2-4-4-----|


Chorus :
|-1-------------------------------|-1-------------------------------|
|---------------1-4-4---1-4-4---1-|---------------1-4-4---1-4-4---1-|
|---------------------------------|---------------------------------|
|-----4---------------------------|-----4---------------------------|
            
Submit corrections


        Dreadlocks The Time Is Now lessons Hard to play? Try these video lessons and learn fast Dreadlocks The Time Is Now lessons
        
↑ Back to top | Tablatures and chords for acoustic guitar and electric guitar, ukulele, drums are parodies/interpretations of the original songs. You may use it for private study, scholarship, research or language learning purposes only