Home » T » The Getaway Plan »

The Getaway Plan - Streetlight Bass

Artists:  A B C D E F G H I J K L M N O P Q R S T U V W X Y Z # 

Streetlight Bass

(ver. 1) Click to play this song!
The Getaway Plan
    ____________________
   / The Getaway Plan  /  I think this song is about a guy feeling that he
  / Streetlight       /  needs to fall in love. It's about that you have to
 / Streeglight       /  give yourself fully in to love and surrender to it
/___________________/  as not living it out fully would be worth noting.

If you want my guitar tab for this song, just follow the link:


Tuning: Drop-C (C G C F)

 Intro (chorus):
****************

    Gm                Gm                Eb                Eb
    E Q   E E Q   E   E Q   E E Q   E   E Q   E E Q   E   E Q   E E Q   E
||------------------|-----------------|-----------------|-----------------|
||o-----------------|-----------------|-----------------|-----------------|
||o-----------------|-----------------|-----------------|-----------------|
||--7-7---7-7-7---7-|-7-7---7-7-7---7-|-3-3---3-3-3---3-|-3-3---3-3-3---3-|


  Cm                Cm                Eb                F
  E Q   E E Q   E   E Q   E E Q   E   E Q   E E Q   E   E Q   E E Q   E
|-----------------|-----------------|-----------------|------------------||
|-----------------|-----------------|-----------------|-----------------o||
|-----------------|-----------------|-----------------|-----------------o||
|-0-0---0-0-0---0-|-0-0---0-0-0---0-|-3-3---3-3-3---3-|-5-5---5-5-5---5--||




 Verse:
*******

  Gm                Gm                C5/7              C5/7
  W                 +W                W                 +W
|-----------------|-----------------|-----------------|-----------------|
|-----------------|-----------------|-----------------|-----------------|
|-----------------|-----------------|-----------------|-----------------|
|-7---------------|-(7)-------------|-0---------------|-(0)-------------|


  Eb                Eb                F(add9)           D(add11)
  W                 +W                W                 W
|-----------------|-----------------|-----------------|-----------------|
|-----------------|-----------------|-----------------|-----------------|
|-----------------|-----------------|-----------------|-----------------|
|-3---------------|-(3)-------------|-5---------------|-6---------------|


  Gm                Gm                Bb6               Bb6
  W                 +W                W                 +W
|-----------------|-----------------|-----------------|-----------------|
|-----------------|-----------------|-----------------|-----------------|
|-----------------|-----------------|-3---------------|-(3)-------------|
|-7---------------|-(7)-------------|-----------------|-----------------|


  Cm(add9)          Cm(add9)          Eb                F
  W                 +W                E E E E E E E E   E E E E E E E E
|-----------------|-----------------|-----------------|-----------------|
|-----------------|-----------------|-----------------|-----------------|
|-5---------------|-(5)-------------|-----------------|-----------------|
|-----------------|-----------------|-3-3-3-3-3-3-3-3-|-5-5-5-5-5-5-5-5-|


  " Excuse me that could someone take this broken bottle
    And explain to me, explain to me
    All the reasons why we'll come undone
    And why the streetlight couldn't harm anyone
    There was reason and eternity
    That all the forces in this place will bring you back to me "



 Pre-Chorus:
************

  Eb                D        F             Gm                        F
  E E E E E E E E   E E E E  E  E  E  E    E  E  E  E  E  E  E  E    E  E  E  E  E  E  E E
|-----------------|---------------------|-------------------------|------------------------|
|-----------------|---------------------|-------------------------|------------------------|
|-8-8-8-8-8-8-8-8-|-7-7-7-7-10-10-10-10-|-12-12-12-12-12-12-12-12-|-10-10-10-10-10-10-10-8-|
|-----------------|---------------------|-------------------------|------------------------|


  Eb                D        F             Gm                        F              Bb5
  E E E E E E E E   E E E E  E  E  E  E    E  E  E  E  E  E  E  E    E  E  E  E  E  E  +Q
|-----------------|---------------------|-------------------------|--------------------------|
|-----------------|---------------------|-------------------------|--------------------------|
|-8-8-8-8-8-8-8-8-|-7-7-7-7-10-10-10-10-|-12-12-12-12-12-12-12-12-|-10-10-10-10-10-----------|
|-----------------|---------------------|-------------------------|----------------10-(10)---|


  " But if you see me coming up again
    I will never spend
    A day without you in my head, in my "



 Chorus:
********
similar to Intro


  " But if we crawl into the morning
    We will never see the light
    And if we leave it up the fate
    Then we could fall in love tonight
    If we spend another minute
    I can find out what it's worth
    You can sweep me off my feet
    And you could bring me down to earth "



 Bridge:
********

    Gm                Gm                Gm                Gm         F
    Q   +Q   Q.   E   Q   +Q   Q.   E   Q   +Q   Q.   E   E E +E   E Q   +E   E
||------------------|-----------------|-----------------|-----------------------|
||o-----------------|-----------------|-----------------|-----------------------|
||o-----------------|-----------------|-----------------|-----------------------|
||--7---(7)\------5-|-7---(7)\------5-|-7---(7)\------5-|-7-7-(7)\-3-5---(5)\-2-|


                                                       1.                  2.
  Eb                Eb                Eb                Eb      F           Eb      F   Dm
  Q   +Q   Q.   E   Q   +Q   Q.   E   Q   +Q   Q.   E   E Q   E E Q   E     E Q   E Q   Q
|-----------------|-----------------|-----------------|------------------||-----------------|
|-----------------|-----------------|-----------------|-----------------o||-----------------|
|-----------------|-----------------|-----------------|-----------------o||-----------------|
|-3---(3)\------2-|-3---(3)\------2-|-3---(3)\------2-|-3-3---3-5-5---5--||-3-3---3-5---2---|


  " Now wait a minute here's the punch line
    And if you understood this passage then you better keep it to yourself
    Yourself, yourself, yourself
    Now wait a minute here's a second time
    And if you understood this passage then you better keep it to yourself
    Yourself, yourself and your head "



 Pre-Chorus:
************
This pre-chorus is similar to previous one, except the break at the end.
The last bar from the other pre-chorus would be 'replaced' with this:

 4/4                      4/4                2/4
   F              Bb5         Bb5             F5
   E  E  E  E  E  E  +Q    E  Q.     H        q   Q
|------------------------|------------------|---------|
|------------------------|------------------|---------|
|-10-10-10-10-10---------|------------------|---------|
|----------------10-(10)-|---10-------------|-5-------|




 Chorus:
********
Similar to previous




 Build-up:
**********

    Gm                Gm                Eb                Cm
    W                 +W                W                 W                4x
||------------------|-----------------|-----------------|------------------||
||o-----------------|-----------------|-----------------|-----------------o||
||o-----------------|-----------------|-----------------|-----------------o||
||--7---------------|-(7)-------------|-3---------------|-0----------------||


  " Now wait a minute here's the punch line
    Now wait a minute here's the punch line
    Now wait a minute here's the punch line
    Now wait a minute here's the PUNCH LINE! "



 Climax:
********

  Gm                Gm                Eb                Cm
  Q   Q   E E E E   Q   Q   E E E E   Q   Q   E E E E   Q   Q   E E E E
|-----------------|-----------------|-----------------|-----------------|
|-----------7-5-7-|-----------7-5-7-|-----------3-2-3-|-----------------|
|-----------------|-----------------|-----------------|-----------3-2---|
|-7---7---7-------|-7---7---7-------|-3---3---3-------|-0---0---0-----5-|


  Gm                Gm                Eb                Cm
  Q   Q   E E E E   Q   Q   E E E E   E E E E E E E E   E E E E E E E E
|-----------------|-----------------|-----------------|-----------------|
|-----------7-5-7-|-----------7-5-7-|-----------------|-----------------|
|-----------------|-----------------|-----------------|-----------------|
|-7---7---7-------|-7---7---7-------|-3-3-3-3-3-3-3-3-|-0-0-0-0-0-0-0-0-|




 Guitar Solo:
*************

    Gm                Gm                Eb                Cm
    E E E E E E E E   E E E E E E E E   E E E E E E E E   E E E E E E E E
||------------------|-----------------|-----------------|------------------||
||o-----------------|-----------------|-----------------|-----------------o||
||o-----------------|-----------------|-----------------|-----------------o||
||--7-7-7-7-7-7-7-7-|-7-7-7-7-7-7-7-7-|-3-3-3-3-3-3-3-3-|-0-0-0-0-0-0-0-0--||




 Breakdown (pre-chorus):
************************
The bass is out till the following chorus.




 Chorus:
********
The first round is similar to the other choruses, but the feeling changes
in the second round. This is played instead in the second round:

  Gm                Gm                Eb                Eb
  Q   Q   Q   Q     Q   Q   Q   Q     Q   Q   Q   Q     Q   Q   Q   Q
|-----------------|-----------------|-----------------|-----------------|
|-----------------|-----------------|-----------------|-----------------|
|-----------------|-----------------|-----------------|-----------------|
|-7---7---7---7---|-7---7---7---7---|-3---3---3---3---|-3---3---3---3---|


  Cm                Cm                Eb                F
  Q   Q   Q   Q     Q   Q   Q   Q     E Q   E E Q   E   E Q   E E Q   E
|-----------------|-----------------|-----------------|-----------------|
|-----------------|-----------------|-----------------|-----------------|
|-----------------|-----------------|-----------------|-----------------|
|-0---0---0---0---|-0---0---0---0---|-3-3---3-3-3---3-|-5-5---5-5-5---5-|




 Outro (bridge):
****************

  Gm                Gm                Gm                Gm
  Q   +Q   Q.   E   Q   +Q   Q.   E   Q   +Q   Q.   E   H       +Q    Q
|-----------------|-----------------|-----------------|-------------------|
|-----------------|-----------------|-----------------|-------------------|
|-----------------|-----------------|-----------------|-------------------|
|-7---(7)\------5-|-7---(7)\------5-|-7---(7)\------5-|-7-------(7)\------|


  " Now wait a minute here's the punch line
    And we're out of time, TIME! "



- 17th /January /08
            
Submit corrections

↑ Back to top | Tablatures and chords for acoustic guitar and electric guitar, ukulele, drums are parodies/interpretations of the original songs. You may use it for private study, scholarship, research or language learning purposes only