Home » T » The Getaway Plan »

The Getaway Plan - Shadows Bass

Artists:  A B C D E F G H I J K L M N O P Q R S T U V W X Y Z # 

Shadows Bass

(ver. 1) Click to play this song!
The Getaway Plan
Tuning: CGCF
Start at 0:17 Intro/Verse
F|---------------------------|---------------------------|
C|--12-12-12-12-12-12-12-10--|--15-15-15-15-15-15-15-17--|
G|---------------------------|---------------------------|
C|---------------------------|---------------------------|

F|---------------------------|---------------------------|
C|--10-10-10-----------------|---------------------------|
G|-----------10--------------|---------------------------|
C|--------------10-10-10-10--|--8--8--8--8--8--8--8--8---|

F|---------------------------|---------------------------|
C|---------------------------|---------------------------|
G|--5--5--5--5--5--5--5--5---|--8--8--8--8--8--8--8--8---|
C|---------------------------|---------------------------|

F|---------------------------|---------------------------|
C|---------------------------|---------------------------|
G|---------------------------|---------------------------|
C|--10-10-10-10-10-10-10-10--|--8--8--8--8--8--8--8--8---|

F|---------------------------|---------------------------|
C|---------------------------|---------------------------|
G|--5~~--------8~~-----------|---10~~--------------------|
C|---------------------------|---------------------------|

Chorus
F|---------------------------|---------------------------|\
C|---------------------------|---------------------------| \
G|--5--5--5--5--5--5--5--5---|--8--8--8--8--8--8--8--8---|  \
C|---------------------------|---------------------------|   \
                                                              X2
F|---------------------------|---------------------------|   /
C|---------------------------|---------------------------|  /
G|---------------------------|---------------------------| /
C|--10-10-10-10-10-10-10-10--|--8--8--8--8--8--8--8--8---|/

Verse
F|---------------------------|---------------------------|\
C|---------------------------|---------------------------| \
G|--5--5--5--5--5--5--5--5---|--8--8--8--8--8--8--8--8---|  \
C|---------------------------|---------------------------|   \
                                                              X3 
F|---------------------------|---------------------------|   / 
C|---------------------------|---------------------------|  /
G|---------------------------|---------------------------| /
C|--10-10-10-10-10-10-10-10--|--8--8--8--8--8--8--8--8---|/

F|---------------------------|---------------------------|
C|---------------------------|---------------------------|
G|--5--5--5--5--5--5--5--5---|--8--8--8--8--8--8--8--8---|
C|---------------------------|---------------------------|

F|---------------------------|---------------------------|
C|---------------------------|---------------------------|
G|---------------------------|---------------------------| 
C|--10-10-10-10-10-10-10-10--|--8--8--8--8--X-X-X-X-X-X--|

Chorus
F|---------------------------|---------------------------|\
C|---------------------------|---------------------------| \
G|--5--5--5--5--5--5--5--5---|--8--8--8--8--8--8--8--8---|  \
C|---------------------------|---------------------------|   \
                                                             X2
F|---------------------------|---------------------------|   /
C|---------------------------|---------------------------|  /
G|---------------------------|---------------------------| /
C|--10-10-10-10-10-10-10-10--|--8--8--8--8--8--8--8--8---|/

F|---------------------------|---------------------------|
C|---------------------------|---------------------------|
G|--5--5--5--5--5--5--5--5---|--8--8--8--8--8--8--8--8---|
C|---------------------------|---------------------------|

F|---------------------------|---------------------------|
C|---------------------------|---------------------------|
G|---------------------------|---------------------------|
C|--10-10-10-10-10-10-10-10--|--8--8--8--8--8--8--7--7---|

F|---------------------------|---------------------------|
C|---------------------------|---------------------------|
G|--5--5--5--5--5--5--5--5---|--8--8--8--8--8--8--8--8---|
C|---------------------------|---------------------------|

F|---------------------------|---------------------------|
C|---------------------------|---------------------------|
G|---------------------------|---------------------------|
C|--10-10-10-10-10-10-10-10--|--8--8--8--8--8--8--8--8---|

Bridge
F|---------------------------|---------------------------|
C|---------------------------|---------------------------|
G|--5--5--5--5--5--5--5--5---|--8--8--8--8--8--8--8--8---|
C|---------------------------|---------------------------|

F|---------------------------|---------------------------|
C|---------------------------|---------------------------|
G|---------------------------|---------------------------|
C|--10-10-10-10-10-10-10-10--|--8--8--8--8--8--8--8--8---|

Verse
F|---------------------------|---------------------------|\
C|---------------------------|---------------------------| \
G|--5--5--5--5--5--5--5--5---|--8--8--8--8--8--8--8--8---|  \
C|---------------------------|---------------------------|   \
                                                              X2
F|---------------------------|---------------------------|   /
C|---------------------------|---------------------------|  /
G|---------------------------|---------------------------| / 
C|--10-10-10-10-10-10-10-10--|--8--8--8--8--8--8--8--8---|/

Pause at 2:26 then continue at 2:30
F|---------------------------|---------------------------|
C|---------------------------|---8/10--------------------|
G|---------------------------|---------------------------|
C|---------------------------|--------------X-X-X-X-X-X--|

F|---------------------------|---------------------------|\
C|---------------------------|---------------------------| \
G|--5--5--5--5--5--5--5--5---|--8--8--8--8--8--8--8--8---|  \
C|---------------------------|---------------------------|   \
                                                             X2
F|---------------------------|---------------------------|   /
C|---------------------------|---------------------------|  /
G|---------------------------|---------------------------| /
C|--10-10-10-10-10-10-10-10--|--8--8--8--8--8--8--8--8---|/

F|---------------------------|---------------------------|
C|---------------------------|---------------------------|
G|--5--5--5--5--5--5--5--5---|--8--8--8--8--8--8--8--8---|
C|---------------------------|---------------------------|

F|---------------------------|---------------------------|
C|---------------------------|---------------------------|
G|---------------------------|---------------------------|
C|--10-10-10-10-10-10-10-10--|--8--8--8--8--8--8--7--7---|


F|---------------------------|---------------------------|
C|---------------------------|---------------------------|
G|--5--5--5--5--5--5--5--5---|--8--8--8--8--8--8--8--8---|
C|---------------------------|---------------------------|

F|---------------------------|---------------------------|
C|---------------------------|---------------------------|
G|---------------------------|---------------------------| 
C|--10-10-10-10-10-10-10-10--|--8--8--8--8--X-X-X-X-X-X--|

Outro
F|---------------------------|---------------------------|
C|---------------------------|---------------------------|
G|--5--5--5--5--5--5--5--5---|--8--8--8--8--8--8--8--8---|  
C|---------------------------|---------------------------|   
                                                            
F|---------------------------|---------------------------|  
C|---------------------------|---------------------------|  
G|---------------------------|---------------------------| 
C|--10-10-10-10-10-10-10-10--|--8--8--8--8--8--8--8--8---|

F|---------------------------|---------------------------|
C|---------------------------|---------------------------|
G|--5--5--5--5--5--5--5--5---|--8--8--8--8--8--8--8--8---|
C|---------------------------|---------------------------|

F|---------------------------|---------------------------|
C|---------------------------|---------------------------|
G|---------------------------|---------------------------| 
C|--10-10-10-10-10-10-10-10--|--8--8--8--8--X-X-X-X-X-X--|

F|---------------------------|---------------------------|
C|---------------------------|---------------------------|
G|--5--5--5--5--5--5--5--5---|--8--8--8--8--8--8--8--8---|  
C|---------------------------|---------------------------|   
                                                            
F|---------------------------|---------------------------|  
C|---------------------------|---------------------------|  
G|---------------------------|---------------------------| 
C|--10-10-10-10-10-10-10-10--|--8--8--8--8--8--8--8--8---|

F|---------------------------|---------------------------|
C|---------------------------|---------------------------|
G|---------------------------|---------------------------|
C|--0~~~-------3~~~----------|---10~~~-------------------|
End
            
Submit corrections

↑ Back to top | Tablatures and chords for acoustic guitar and electric guitar, ukulele, drums are parodies/interpretations of the original songs. You may use it for private study, scholarship, research or language learning purposes only