» » »

The Garden - The Tractor Bass

Artists:  A B C D E F G H I J K L M N O P Q R S T U V W X Y Z # 

The Tractor Bass

(ver. 1) Click to play this song!
The Garden
 Rating:
4.5/5 (21 vote)

 The Tractor  lessons Tabs too difficult? Try these video lessons and learn fast
 
                
G|---------------------------------------------------------------------------|
D|-------------------------3-3-0-0-----------------------------0-0-----------|
A|---------------------------------------------------------3-3---------------|
E|-0-0-0-0-0-0-0-0-0-0-0-0---------0-0-0-0-0-0-0-0-0-0-0-0-------------------|

G|---------------------------------------------------------------------------|
D|-------------------------3-3-0-0-------------------------0-----------------|
A|---------------------------------------------------------8-----------------|
E|-0-0-0-0-0-0-0-0-0-0-0-0---------0-0-0-0-0-0-0-0-0-0-0-0-------------------|

G|---------------------------------------------------------------------------|
D|-------------------------3-3-0-0-------------------------------------------|
A|---------------------------------------------------------------------------| x4
E|-0-0-0-0-0-0-0-0-0-0-0-0---------------------------------------------------| 

G|---------------------------------------------------------------------------|
D|-----------------------------0-0-------------------------------------------|
A|-------------------------3-3-----------------------------------------------| x4
E|-0-0-0-0-0-0-0-0-0-0-0-0---------------------------------------------------|
            
Submit corrections


        The Tractor  lessons Hard to play? Try these video lessons and learn fast The Tractor  lessons
        
↑ Back to top | Tablatures and chords for acoustic guitar and electric guitar, ukulele, drums are parodies/interpretations of the original songs. You may use it for private study, scholarship, research or language learning purposes only