» » »

The Garden - Haha Bass

Artists:  A B C D E F G H I J K L M N O P Q R S T U V W X Y Z # 

Haha Bass

(ver. 1) Click to play this song!
The Garden
 Rating:
4.3/5 (29 votes)

 Haha lessons Tabs too difficult? Try these video lessons and learn fast
 
                G|-----------------------------------------------|
D|-----------------------------------------------| 
A|--------10-10-8-10-7-7-7-7---------------------|  x4
E|---------------------------10-10-10-10-9-9-9-9-|

G|-17-16-17-19-|
D|-------------|
A|-------------|
E|-------------|

G|-----------------------------------------------|
D|-----------------------------------------------| 
A|--------10-10-8-10-7-7-7-7---------------------|  x4
E|---------------------------10-10-10-10-9-9-9-9-|

G|-17-16-17-19-|
D|-------------|
A|-------------|
E|-------------|

G|-----------------------------------------------|
D|-----------------------------------------------| 
A|--------10-10-8-10-7-7-7-7---------------------|  x8
E|---------------------------10-10-10-10-9-9-9-9-|


G|---------------------|
D|--6---6---6---6-3-3--|
A|--8---8---8---8-5-5--|
E|---------------------|

G|-----------------------------------------------|
D|-----------------------------------------------| 
A|--------10-10-8-10-7-7-7-7---------------------|  x4
E|---------------------------10-10-10-10-9-9-9-9-|
            
Submit corrections


        Haha lessons Hard to play? Try these video lessons and learn fast Haha lessons
        
↑ Back to top | Tablatures and chords for acoustic guitar and electric guitar, ukulele, drums are parodies/interpretations of the original songs. You may use it for private study, scholarship, research or language learning purposes only