» » »

The Garden - Egg Bass

Artists:  A B C D E F G H I J K L M N O P Q R S T U V W X Y Z # 

Egg Bass

(ver. 1) Click to play this song!
The Garden
 Rating:
4.4/5 (14 votes)

 Egg  lessons Tabs too difficult? Try these video lessons and learn fast
 
                [Intro]

G|------------------------------------------------------------|
D|-------7-7-7--------------7-7--------7-7-7----------7-7-----|
A|5--5-5-------5--5-5-5-5-5-----5--5-5-------5--5-5-5-----4-4-|
E|------------------------------------------------------------|

G|------------------------------------------------------------|
D|-------5-5-5--------------5-5--------5-5-5------------------|
A|3--3-3-------3--3-3-3-3-3-----3--3-3-------3--3-3-3-3-3-4-4-|
E|------------------------------------------------------------|


[Verse]

G|------------------------------------------------------------|
D|-------7-7-7--------------7-7--------7-7-7----------7-7-----|
A|5--5-5-------5--5-5-5-5-5-----5--5-5-------5--5-5-5-----4-4-|
E|------------------------------------------------------------|

G|------------------------------------------------------------|
D|-------5-5-5--------------5-5--------5-5-5------------------|
A|3--3-3-------3--3-3-3-3-3-----3--3-3-------3--3-3-3-0-0-0-0-|
E|------------------------------------------------------------|


[Chorus]

G|-----------------------------------------------------------|
D|-----------------------------------------------------------|
A|5-5-5-5-5-5-5-5-5-5-5-5-5-5--------------------------------|
E|----------------------------5-5-3--3-0-3--0-3--0-3-0-3-0-5-|

G|---0---0---0---0---0---0---0----------------------------------|
D|--------------------------------------------------------5-----|
A|------------------------------------------------------7---7-6-|
E|0----0---0---0---0---0---0----7--5--5-0-5--0-5--0-5-0---------|


[Break]

G|------------------------------------------------------------|
D|-------7-7-7--------------7-7--------7-7-7----------7-7-----|
A|5--5-5-------5--5-5-5-5-5-----5--5-5-------5--5-5-5-----4-4-|
E|------------------------------------------------------------|

G|------------------------------------------------------------|
D|-------5-5-5--------------5-5--------5-5-5------------------|
A|3--3-3-------3--3-3-3-3-3-----3--3-3-------3--3-3-3-3-3-4-4-|
E|------------------------------------------------------------|


[Verse]

G|------------------------------------------------------------|
D|-------7-7-7--------------7-7--------7-7-7----------7-7-----|
A|5--5-5-------5--5-5-5-5-5-----5--5-5-------5--5-5-5-----4-4-|
E|------------------------------------------------------------|

G|------------------------------------------------------------|
D|-------5-5-5--------------5-5--------5-5-5------------------|
A|3--3-3-------3--3-3-3-3-3-----3--3-3-------3--3-3-3-0-0-0-0-|
E|------------------------------------------------------------|


[Chorus]

G|-----------------------------------------------------------|
D|-----------------------------------------------------------|
A|5-5-5-5-5-5-5-5-5-5-5-5-5-5--------------------------------|
E|----------------------------5-5-3--3-0-3--0-3--0-3-0-3-0-5-|
                                                                   x2
G|---0---0---0---0---0---0---0----------------------------------|
D|--------------------------------------------------------5-----|
A|------------------------------------------------------7---7-6-|
E|0----0---0---0---0---0---0----7--5--5-0-5--0-5--0-5-0---------|


[Bridge]

G|17------14----------------------|
D|15------12----------------------|
A|17------14----------------------|  x3
E|----------------0---------------|


[Chorus/Outro]

G|-----------------------------------------------------------|
D|-----------------------------------------------------------|
A|5-5-5-5-5-5-5-5-5-5-5-5-5-5--------------------------------|
E|----------------------------5-5-3--3-0-3--0-3--0-3-0-3-0-5-|
                                                                   x3
G|---0-----0-----0---------------------------------------|
D|-------------------------------------------------5-----|
A|-----------------------------------------------7---7-6-|
E|0----0-0---0-0---0-0---7--5--5-0-5--0-5--0-5-0---------|


[End]

G|------------|
D|------------|
A|5-----------|
E|------------|            
Submit corrections


        Egg  lessons Hard to play? Try these video lessons and learn fast Egg  lessons
        
↑ Back to top | Tablatures and chords for acoustic guitar and electric guitar, ukulele, drums are parodies/interpretations of the original songs. You may use it for private study, scholarship, research or language learning purposes only