» » »

The Flesh Eaters - See You In The Boneyard Tabs

Artists:  A B C D E F G H I J K L M N O P Q R S T U V W X Y Z # 

See You In The Boneyard Tabs

(ver. 1) Click to play this song!
The Flesh Eaters
 Rating:
2.5/5 (26 votes)

 See You In The Boneyard  lessons Tabs too difficult? Try these video lessons and learn fast
 
                
INTRO/INTERLUDE:
E|------------------------------------------------------------------------------------------------||
B|-------------------------6--6--6--6--x--6--6--x--------------------------6--6--6--6--x--6--6--x-||
G|-7--7--7--x--3--3--3--x--6--6--6--6--x--6--6--x--7--7--7--x--3--3--3--x--6--6--6--6--x--6--6--x-|| x 2
D|-8--8--8--x--4--4--4--x--6--6--6--6--x--6--6--x--8--8--8--x--4--4--4--x--6--6--6--6--x--6--6--x-||
A|-8--8--8--x--4--4--4--x--4--4--4--4--x--4--4--0--8--8--8--x--4--4--4--x--4--4--4--4--x--4--4--0-||
E|-6--6--6--0--2--2--2--0--------------------------6--6--6--0--2--2--2--0-------------------------||



VERSE:
   PM PM PM PM PM PM PM PM PM PM PM PM PM PM PM PM PM PM PM PM PM PM PM PM PM PM PM PM PM PM PM PM
E|------------------------------------------------------------------------------------------------||
B|-------------------------6--6--6--6--x--6--6--x--------------------------6--6--6--6--x--6--6--x-||
G|-7--7--7--x--3--3--3--x--6--6--6--6--x--6--6--x--7--7--7--x--3--3--3--x--6--6--6--6--x--6--6--x-||
D|-8--8--8--x--4--4--4--x--6--6--6--6--x--6--6--x--8--8--8--x--4--4--4--x--6--6--6--6--x--6--6--x-||
A|-8--8--8--x--4--4--4--x--4--4--4--4--x--4--4--0--8--8--8--x--4--4--4--x--4--4--4--4--x--4--4--0-||
E|-6--6--6--0--2--2--2--0--------------------------6--6--6--0--2--2--2--0-------------------------||



PRE-CHORUS:
E|------------------------------------------------------------------------------------------------|
B|------------------------------------------------------------------------------------------------|
G|----------------------------------------6-----------------------------------------------6-------|
D|-8--8--8--6--8--8--8--6--8--8--8--6--8--6--8--6--8--8--8--6--8--8--8--6--8--8--8--6--8--6--8--6-|
A|-8--8--8--6--8--8--8--6--8--8--8--6--8-----8--6--8--8--8--6--8--8--8--6--8--8--8--6--8-----8--6-|
E|------------------------------------------------------------------------------------------------|
+
E|------------------------------------------------------------------------------------------------|
B|----------------------------------------7-------------------------------------------------------|
G|-8--8--8--6--8--8--8--6--8--8--8--6--8--6--8--6-----------------------------------------6-------|
D|-8--8--8--6--8--8--8--6--8--8--8--6--8-----8--6--8--8--8--6--8--8--8--6--8--8--8--6--8--6--8--6-|
A|-------------------------------------------------8--8--8--6--8--8--8--6--8--8--8--6--8-----8--6-|
E|------------------------------------------------------------------------------------------------|
+
E|------------------------------------------------------------------------------------------------|
B|----------------------------------------9-------------------------------------------------------|
G|-10-10-10-8--10-10-10-8--10-10-10-8--10-8--10-8-----------------------------------------6-------|
D|-10-10-10-8--10-10-10-8--10-10-10-8--10----10-8--8--8--8--6--8--8--8--6--8--8--8--6--8--6--8--6-|
A|-------------------------------------------------8--8--8--6--8--8--8--6--8--8--8--6--8-----8--6-|
E|------------------------------------------------------------------------------------------------|



CHORUS:
E|----------------------------------------------------------------------------7--4----------------||
B|-6--------11-------------6-----6--9-----9--------------------6--4-----------7--4--6--4----------||
G|-6--------11-------------6-----6--9-----9--------5-----5-----6--4-----5-----------6--4--6--4-p0-||
D|-6--------11-------------6-----6--9-----9--------6-----6-----6--4-----6-----------------6--4-p0-||
A|-4--------9--------------4-----4--7-----7--------6-----6--------------6-------------------------||
E|-------------------------------------------------4-----4--------------4-------------------------||



OUTRO:
E|----------------------------------------------------------------------------7--4----------------|
B|-6--------11-------------6-----6--9-----9--------------------6--4-----------7--4--6--4----------|
G|-6--------11-------------6-----6--9-----9--------5-----5-----6--4-----5-----------6--4--6--4-p0-|
D|-6--------11-------------6-----6--9-----9--------6-----6-----6--4-----6-----------------6--4-p0-|
A|-4--------9--------------4-----4--7-----7--------6-----6--------------6-------------------------|
E|-------------------------------------------------4-----4--------------4-------------------------|
+
E|----------------------------------------------------------------------------7--7--7--7--4-------||
B|-6--------11-------------6-----6--9-----9--------------------6--4-----------7--7--7--7--4--6-p4-||
G|-6--------11-------------6-----6--9-----9--------5-----5-----6--4-----5--------------------6-p4-|| x 2
D|-6--------11-------------6-----6--9-----9--------6-----6-----6--4-----6-------------------------||
A|-4--------9--------------4-----4--7-----7--------6-----6--------------6-------------------------||
E|-------------------------------------------------4-----4--------------4-------------------------||
+
E|------------------------------------------------------------------------------------------------|
B|-6--------11-------------6-----6--9-----9--------------------6--4-------------------------------|
G|-6--------11-------------6-----6--9-----9--------5-----5-----6--4-----5-------------------------|
D|-6--------11-------------6-----6--9-----9--------6-----6-----6--4-----6-------------------------|
A|-4--------9--------------4-----4--7-----7--------6-----6--------------6-------------------------|
E|-------------------------------------------------4-----4--------------4-------------------------|



SONG STRUCTURE:
INTRO
VERSE x 2
PRE-CHORUS
CHORUS x 2
INTERLUDE
VERSE x 4
PRE-CHORUS
CHORUS x 2
INTERLUDE
VERSE x 2
OUTRO
            
Submit corrections


        See You In The Boneyard  lessons Hard to play? Try these video lessons and learn fast See You In The Boneyard  lessons
        
↑ Back to top | Tablatures and chords for acoustic guitar and electric guitar, ukulele, drums are parodies/interpretations of the original songs. You may use it for private study, scholarship, research or language learning purposes only