» » »

The Flesh Eaters - Satans Stomp Tabs

Artists:  A B C D E F G H I J K L M N O P Q R S T U V W X Y Z # 

Satans Stomp Tabs

(ver. 1) Click to play this song!
The Flesh Eaters
 Rating:
4.2/5 (22 votes)

 Satans Stomp  lessons Tabs too difficult? Try these video lessons and learn fast
 
                TUNING: Standard



GUITAR: Dave Alvin (Fender Mustang, Fender Twin Reverb)



MAIN RIFF:
E|------------------------------------------------------------------------------------------------|
B|------------------------------------------------------------------------------------------------|
G|------------------------------------------------------------------------------------------------|
D|-9-----------7-----------------------6-----------------------------------6--6-------------------|
A|-------------------------9-----------------8--9-----9--------------------------8--9-------------|
E|------------------------------------------------------------------------------------------------|



CHORUS:
E|------------------------------------------------------------------------------------------------|
B|-5-----3~----------------5-----3~----------------5-----3~----------------5-----3~---------------|
G|-5-----3~----------------5-----3~----------------5-----3~----------------5-----3~---------------|
D|-5-----3~----5--5--5-----5-----3~----5--5--5-----5-----3~----5--5--5-----5-----3~----5--5--5----|
A|------------------------------------------------------------------------------------------------|
E|------------------------------------------------------------------------------------------------|
+
E|------------------------------------------------------------------------------------------------|
B|-5-----3~----------------5-----3~----------------5-----3~----------------5-----3~---------------|
G|-5-----3~----------------5-----3~----------------5-----3~----------------5-----3~---------------|
D|-5-----3~----5--5--5-----5-----3~----5--5--5-----5-----3~----5--5--5-----5-----3~----5--5-------|
A|------------------------------------------------------------------------------------------------|
E|------------------------------------------------------------------------------------------------|            
Submit corrections


        Satans Stomp  lessons Hard to play? Try these video lessons and learn fast Satans Stomp  lessons
        
↑ Back to top | Tablatures and chords for acoustic guitar and electric guitar, ukulele, drums are parodies/interpretations of the original songs. You may use it for private study, scholarship, research or language learning purposes only