Home » T » The Field Mice »

The Field Mice - Coach Station Reunion Bass

Artists:  A B C D E F G H I J K L M N O P Q R S T U V W X Y Z # 

Coach Station Reunion Bass

(ver. 1) Click to play this song!
The Field Mice
[Intro]
(00:08)
G|-------------|--------------| x4
D|-----7-9-9--7|--------------|
A|-7-----------|-7------------|
E|-------------|-----10--7-10-|
 
[Verse 1]
G|-------------|--------------| x4
D|-----7-9-9--7|--------------|
A|-7-----------|-7------------|
E|-------------|-----10--7-10-|
 
G|-----7-9-9--7|----7h9---9-11-|-12--12-11--9---|--------7-9--7h9-|
D|-7-----------|-7-------------|--------------12|-9--7-9----------|
A|-------------|---------------|----------------|-----------------|
E|-------------|---------------|----------------|-----------------|
 
G|-------------|--------------| x2
D|-----7-9-9--7|--------------|
A|-7-----------|-7------------|
E|-------------|-----10--7-10-|
 
[Pre-Chorus]
G|-------------|-----------------|-9----7------------------------|
D|-7--7-7-7-7-7|-5/7--7-7-7-7--9-|---9----7--10-----9--------7-9-|
A|-------------|-----------------|--------------10----9-/10------|
E|-------------|-----------------|-------------------------------|
 
[Chorus]
G|----------------|--------------|----------------|----------------|
D|-0-0-0-0-0-0-0-0|-5/7---9--7---|----------------|----------------|
A|----------------|------------7-|-5-5-5----------|----------------|
E|----------------|--------------|-------7-7-7-7-5|-7-7-7-7-7-7-7-7|
 
G|----------------|-------------|----------------|---------------|
D|----------------|---7--9--7---|----------------|---------------|
A|-5-5-5-5-5------|-7---------7-|-5-5-5----------|---------------|
E|-----------7-5-5|-------------|-------7-7-7-7-5|-7-7-7-7-7-5-7-|
 
[Interlude]
G|-------------|--------------| x2
D|-----7-9-9--7|--------------|
A|-7-----------|-7------------|
E|-------------|-----10--7-10-|
 
[Verse 2]
G|-------------|--------------| x4
D|-----7-9-9--7|--------------|
A|-7-----------|-7------------|
E|-------------|-----10--7-10-|
 
G|-----7-9-9--7|----7h9---9-11-|-12--12-11--9---|--------7-9--7h9-|
D|-7-----------|-7-------------|--------------12|-9--7-9----------|
A|-------------|---------------|----------------|-----------------|
E|-------------|---------------|----------------|-----------------|
 
G|-------------|--------------| x2
D|-----7-9-9--7|--------------|
A|-7-----------|-7------------|
E|-------------|-----10--7-10-|
 
[Pre-Chorus]
G|-------------|-----------------|-9----7------------------------|
D|-7--7-7-7-7-7|-5/7--7-7-7-7--9-|---9----7--10-----9--------7-9-|
A|-------------|-----------------|--------------10----9-/10------|
E|-------------|-----------------|-------------------------------|
 
[Chorus]
G|----------------|-------------|----------------|----------------|
D|-0-0-0-0-0-0-0-0|-7-9--9--7---|----------------|----------------|
A|----------------|-----------7-|-5-5-5----------|----------------|
E|----------------|-------------|-------7-7-7-7-5|-7-7-7-7-7-7-7-7|
 
G|----------------|-------------|----------------|---------------|
D|----------------|---7--9--7---|----------------|---------------|
A|-5-5-5-5-5------|-7---------7-|-5-5-5----------|---------------|
E|-----------7-5-5|-------------|-------7-7-7-7-5|-7-7-7-7-7-5-7-|
 
[Interlude]
G|-------------|--------------| x2
D|-----7-9-9--7|--------------|
A|-7-----------|-7------------|
E|-------------|-----10--7-10-|
 
[Solo]
G|-------------|--------------| x4
D|-----7-9-9--7|--------------|
A|-7-----------|-7------------|
E|-------------|-----10--7-10-|
 
G|-----7-9-9--7|----7h9---9-11-|-12--12-11--9---|--------7-9--7h9-|
D|-7-----------|-7-------------|--------------12|-9--7-9----------|
A|-------------|---------------|----------------|-----------------|
E|-------------|---------------|----------------|-----------------|
 
G|-------------|--------------| x2
D|-----7-9-9--7|--------------|
A|-7-----------|-7------------|
E|-------------|-----10--7-10-|
 
[Pre-Chorus]
G|-------------|-----------------|-9----7------------------------|
D|-7--7-7-7-7-7|-5/7--7-7-7-7--9-|---9----7--10-----9--------7-9-|
A|-------------|-----------------|--------------10----9-/10------|
E|-------------|-----------------|-------------------------------|
 
[Chorus]
G|----------------|------------|----------------|----------------|
D|-0-0-0-0-0-0-0-0|-7---9--7---|----------------|----------------|
A|----------------|----------7-|-5-5-5----------|----------------|
E|----------------|------------|-------7-7-7-7-5|-7-7-7-7-7-7-7-7|
 
G|----------------|-------------|----------------|---------------|
D|----------------|---7--9--7---|----------------|---------------|
A|-5-5-5-5-5------|-7---------7-|-5-5-5----------|---------------|
E|-----------7-5-5|-------------|-------7-7-7-7-5|-7-7-7-7-7-5-7-|
 
[Outro]
G|-------------|--------------| x4
D|-----7-9-9--7|--------------|
A|-7-----------|-7------------|
E|-------------|-----10--7-10-|
 
G|--|
D|--|
A|-7|
E|--|
            
Submit corrections

↑ Back to top | Tablatures and chords for acoustic guitar and electric guitar, ukulele, drums are parodies/interpretations of the original songs. You may use it for private study, scholarship, research or language learning purposes only