Home » T » The Feelers »

The Feelers - Communicate Tabs

Artists:  A B C D E F G H I J K L M N O P Q R S T U V W X Y Z # 

Communicate Tabs

(ver. 1) Click to play this song!
The Feelers
 Rating:
4/5 (4 votes)
                Communication - The feelers

Intro
      Cmajor                             Csus2
e-----------------------------------------------------------
B---1--1-1-1--1-1--1-1-----0--0--0--0-0-0--0--0-------------
G---0--0-0-0--0-0--0-0-----0--0--0--0-0-0--0--0-------------
D---2--2-2-2--2-2--2-2-----2--2--2--2-2-2--2--2-------------
A---3--3-3-3--3-3--3-3-----3--3--3--3-3-3--3--3-------------
E-----------------------------------------------------------
       

Lead over Intro
e-----------8------------8-----------7----------7--------
B--------8-----8-----8----8------8----8------8-----8-----
G----9-------------9----------9------------9-------------
D--------------------------------------------------------
A--------------------------------------------------------
E--------------------------------------------------------

Verse
just bass, based around the intro with occasional segments of the lead


Prechorus
'cuz everythings gonna be alright'
     G                               C
e--3--3--3--3--3--3--3-3----------------------------------
B--0--0--3--3--3--3--3-3----------------------------------
G--0--0--0--0--0--0--0-0--4-4-4-4-4-4-4-4-----------------
D--0--0--0--0--0--0--0-0--3-3-3-3-3-3-3-3-----------------
A--2--2--2--2--2--2--2-2--2-2-2-2-2-2-2-2-----------------
E--3--3--3--3--3--3--3-3----------------------------------
     
Chorus
    Fmaj                          Gmaj                D5
e--1-------------------------3----------------------------
B--1-------------------------0----------------------------
G--2-------------------------0--------x3----then------7---
D--3-------------------------0------------------------7---
A--3-------------------------2------------------------5---
E--1-------------------------3----------------------------

Lead over chorus
e---8--8-8-7---------8-8-10----------------------
B---8--8-8-8-x3-then 8-8-8-----------------------
G------------------------------------------------
D------------------------------------------------
A------------------------------------------------
E------------------------------------------------



Solo
e------------------------------------------------
B--13---12---13--12--13--12--13------------------
G--------------------------------------12~-------
D------------------------------------------------ x3
A------------------------------------------------
E------------------------------------------------

e------------------------------------------------
B------------------------------------------------
G---14------10h12p10---12~-----------------------
D------14----------------------------------------
A------------------------------------------------
E------------------------------------------------


Ending chord

     C9
e----0---------------
B----3---------------
G----0---------------
D----2---------------
A----3---------------
E--------------------


Mike Crawford - 2002


dedicated to lucy, the biggest feelers fan on earth(apparently)
            
Submit corrections

↑ Back to top | Tablatures and chords for acoustic guitar and electric guitar, ukulele, drums are parodies/interpretations of the original songs. You may use it for private study, scholarship, research or language learning purposes only