Home » T » The Fall Of Troy »

The Fall Of Troy - You Gotta Death Wish Johnny Truant Tabs

Artists:  A B C D E F G H I J K L M N O P Q R S T U V W X Y Z # 

You Gotta Death Wish Johnny Truant Tabs

(ver. 3) Click to play this song!
The Fall Of Troy
Intro

E|--320---------------------------|
B|-----3--------------------------|
G|------0-2/4-7/2-----------------|
D|------------5/2--5420------5-xx-|
A|------------3/0-2----2-4h5-7-xx-|
E|-0-------------------------5-xx-|

E|--320--------------------------------------|
B|-----3-------------------------------------|
G|------0-2/4-7/2-55555------------2222------|
D|------------5/2-55555----4p0-2p0-2222-2222-|
A|------------3/0-33333-0h2--------0000-2222-|
E|-0------------------------------------0000-|


"Wake the sun..."

E|--320---------------------------|
B|-----3--------------------------|
G|------0-2/4-7/2-----------------|
D|------------5/2--5420------5-xx-|
A|------------3/0-2----2-4h5-7-xx-|
E|-0-------------------------5-xx-|

E|--320--------------------------------------|
B|-----3-------------------------------------|
G|------0-2/4-7/2-55555------------4444------|
D|------------5/2-55555----4p0-2p0-4444-2222-|
A|------------3/0-33333-0h2--------2222-2222-|
E|-0------------------------------------0000-|

Breakdown
   PM......        ..                 ......        ...
E|------------------------------------------------------15p0-------|
B|---------15p12-----15p12--17p0-12---------15p12-----------12-15b-|
G|--------------12--------12---------------------12----------------|
D|-----------------------------------------------------------------|
A|-----------------------------------------------------------------|
E|-0-000000--------00---------------0-000000--------000------------|

"Staring at your glass smile"

E|-------------------------------------------------|
B|-8888-7777-3333-5555-8888-7777-13131313-12121212-|
G|-------------------------------------------------|
D|-------------------------------------------------|
A|-7777-6666-2222-3333-7777-6666-12121212-11111111-|
E|-------------------------------------------------|   x2

outro to that part
         ......
E|-----0--------|
B|-----5--------|
G|-5-4-5-222222-|
D|-------222222-|
A|---5-3-000000-|
E|-5-0----------|

"Wake the sun"
E|--320---------------------------|
B|-----3--------------------------|
G|------0-2/4-7/2-----------------|
D|------------5/2--5420------5-xx-|
A|------------3/0-2----2-4h5-7-xx-|
E|-0-------------------------5-xx-|

E|--320--------------------------------------|
B|-----3-------------------------------------|
G|------0-2/4-7/2-55555------------4444------|
D|------------5/2-55555----4p0-2p0-4444-2222-|
A|------------3/0-33333-0h2--------2222-2222-|
E|-0------------------------------------0000-|

And thats all i got so far.  I'll get the end up when i figure it out.
            
Submit corrections

↑ Back to top | Tablatures and chords for acoustic guitar and electric guitar, ukulele, drums are parodies/interpretations of the original songs. You may use it for private study, scholarship, research or language learning purposes only