Home » T » The Fall Of Troy »

The Fall Of Troy - Tom Waits Tabs

Artists:  A B C D E F G H I J K L M N O P Q R S T U V W X Y Z # 

Tom Waits Tabs

(ver. 1) Click to play this song!
The Fall Of Troy
(Intro)
                          Tom Waits



e|---------------------------------------------------------------------------|
B|---------------------------------------------------------------------------|
G|------------------------------------------9--7--5--------------------------|
D|--------------10-10-10---------10-10-10------------------------------------|
A|-----7-7-7--------------7-7-7----------------------------------------------|
E|---------------------------------------------------------------------------|
       * * *              * * *

e|---------------------------------------------------------------------------|
B|---------------------------------------------------------------------------|
G|---------------10-10-10---------10-10-10---14-12-10------------------------|
D|-------7-7-7-------------7-7-7---------------------------------------------|
A|---------------------------------------------------------------------------|
E|---------------------------------------------------------------------------|
         * * *             * * *


The rest is way to crazy for my to try to figure out.
            
Submit corrections

↑ Back to top | Tablatures and chords for acoustic guitar and electric guitar, ukulele, drums are parodies/interpretations of the original songs. You may use it for private study, scholarship, research or language learning purposes only