Home » T » The Fall Of Troy »

The Fall Of Troy - The Vomiting Winter Tabs

Artists:  A B C D E F G H I J K L M N O P Q R S T U V W X Y Z # 

The Vomiting Winter Tabs

(ver. 2) Click to play this song!
The Fall Of Troy
(Intro)
INTRO

e -12p0--------10p0-------12p0-------10p0-------7p0--------------8p0-7~p0*--|
b -----12p0--------10p0-------12p0-------10p0------8p0--------8p0-----------|
g ---------12p0--------9p0--------12p0-------9p0------9p0-8p0---------------|
d --------------------------------------------------------------------------|
a --------------------------------------------------------------------------|
e --------------------------------------------------------------------------|

e ------------------12p0--------10p0-------12p0-------10p0------------------|
b -10--8--7--4444*------12p0--------10p0-------12p0-------10p0--------------|
g -11--9--8--5555*----------12p0--------9p0--------12p0-------9p0-----------|
d --------------------------------------------------------------------------|
a --------------------------------------------------------------------------|
e --------------------------------------------------------------------------|

e -7p0--------------8p0-7~p0*-----------------------------------------------|
b ----8p0-------8p0-----------10--8--7--4444*-------------------------------|
g -------9p0-8p0--------------11--9--8--5555*-------------------------------|
d --------------------------------------------------------------------------|
a --------------------------------------------------------------------------|
e --------------------------------------------------------------------------|

CHORUS

e -----x-12121212x-----x-10101010x---x-55x-----x-12121212x-----x-10101010x--|
b -8888x---------x-5555x---------x-33x---x-8888x---------x-5555x---------x--|
g -7777x-12121212x-4444x-12121212x-22x-55x-7777x-12121212x-4444x-12121212x--|
d -----x---------x-----x---------x-00x---x-----x---------x-----x---------x--|
a -7777x---------x-3333x---------x---x---x-7777x---------x-3333x---------x--|
e -----x---------x-----x---------x---x---x-----x---------x-----x---------x--|

e ---x-55x-----x12121212x-----x-10101010x---x-55x-----x-12121212x-----x-----|
b -33x---x-8888x--------x-5555x---------x-33x---x-8888x---------x-5555x-----|
g -22x-55x-7777x12121212x-4444x-12121212x-22x-55x-7777x-12121212x-4444x-----|
d -00x---x-----x--------x-----x---------x-00x---x-----x---------x-----x-----|
a ---x---x-7777x--------x-3333x---------x---x---x-7777x---------x-3333x-----|
e ---x---x-----x--------x-----x---------x---x---x-----x---------x-----x-----|

CONTINUED

e -10101010x----------------0-0-10h12p0-7p0------5-5-8h10p0-5p0----5h8p0-7*-|
b ---------x-----------8888-----------------5555----------------33----------|
g -12121212x-(7*^)-----7777-----------------4444----------------22----------|
d ---------x----------------------------------------------------00----------|
a ---------x-----------7777-----------------3333----------------------------|
e ---------x----------------------------------------------------------------|

e ------0-0-10h12p0-7p0------5-5-8h10p0-5p0----5h8p0-7*------0-0-10h12p0-7p0-|
b -8888-----------------5555----------------33----------8888-----------------|
g -7777-----------------4444----------------22----------7777-----------------|
d ------------------------------------------00-------------------------------|
a -7777-----------------3333----------------------------7777-----------------|
e ---------------------------------------------------------------------------|

e ------5-5-8h10p0-5p0----5h8p0-7*------0-0-10h12p0-7p0-----5-5-8h10p0-5p0---|
b -5555----------------33----------8888-----------------5555---------------3-|
g -4444----------------22----------7777-----------------4444---------------2-|
d ---------------------00--------------------------------------------------0-|
a -3333----------------------------7777-----------------3333-----------------|
e ---------------------------------------------------------------------------|

Go back to the intro and chorus and do them over again....... and thats all so far.
            
Submit corrections

↑ Back to top | Tablatures and chords for acoustic guitar and electric guitar, ukulele, drums are parodies/interpretations of the original songs. You may use it for private study, scholarship, research or language learning purposes only