Home » T » The Fall Of Troy »

The Fall Of Troy - Seattlantis Tabs

Artists:  A B C D E F G H I J K L M N O P Q R S T U V W X Y Z # 

Seattlantis Tabs

(ver. 2) Click to play this song!
The Fall Of Troy
-------------------------------------------------------------------------------
                             Seattlantis - The Fall of Troy
-------------------------------------------------------------------------------

This is my first tab ever. 
The other tabs I've seen for this song weren't accurate, but
a couple of them did have some parts down pretty well.
Either way, I decided to make my own.

One part that I did NOT manage to tab was the tap solo. 

Tuning: E A D G B e (standard)

Intro: I find it's easiestt to hold that first chord 
for the first seven notes, and then
noodle around for the rest of it. 
I have no idea how Tom actually plays it.

e|-------------------------------------------------------------------------|
B|---------3--------------------1--1h3p1p0-------------------3----------3--|
G|-----3-----3-------3----------------------3p0-0--------3-----------------|
D|---1-----------------1--------------------------------------------3------|
A|-3-----3-----3---1-----3-----------------------------1---1------1---1----|
E|--------------------------------------------------3----------3-----------|

e|---------3-----1---------------------------------------------------------|
B|-3---3-----3-------------------------------------------------------------|
G|---3---3-----3-----------------------------------------------------------|
D|-------------------------------------------------------------------------|
A|-------------------------------------------------------------------------|
E|-------------------------------------------------------------------------|


e|-------------------------------------------------------------------------|
B|---------3--------------------1--1h3p1p0-------------------3----------3--|
G|-----3-----3-------3----------------------3p0-0--------3-----------------|
D|---1-----------------1--------------------------------------------3------|
A|-3-----3-----3---1-----3-----------------------------1---1------1---1----|
E|--------------------------------------------------3----------3-----------|

e|-------------3-----------------------------------------------------------|
B|-3---3---3---------------------------------------------------------------|
G|---3---3---3-------------------------------------------------------------|
D|-------------------------------------------------------------------------|
A|-------------------------------------------------------------------------|
E|-------------------------------------------------------------------------|

Verse:

e|-------------------------------------------------------------------------|
B|-------------------------------------------------------------------------|
G|-8-6h7p6p0--8-6h7p6p0----------8-6h7p6p0-8-6h7p6p0-----------------------|
D|-8----------8---------5h6p5p0--8---------8----------5h6p5p0--------------|
A|-6----------6------------------6---------6-------------------------------|
E|-------------------------------------------------------------------------|

e|-------------------------------------------------------------------------|
B|---------------------------------9/11/12b--------------------------------|
G|-6-4h5p4p0-6-4h5p4p0-6-4h5p4p0---9/11/12b--------------------------------|
D|-6---------6---------6---------------------------------------------------|
A|-4---------4---------4---------------------------------------------------|
E|-------------------------------------------------------------------------|

e|-------------------------------------------------------------------------|
B|-------------------------------------------------------------------------|
G|-6-4h5p4p0-6-4h5p4p0-6-4h5p4p0-------------------------------------------|
D|-6---------6---------6---------------------------------------------------|
A|-4---------4---------4-----------8h10-7h9-6h8----------------------------|
E|-------------------------------------------------------------------------|

Chorus: Play the intro again, just a little sloppier so 
that the notes ring together.

when it gets to the second time around, play the chords 
separately as chords, stressing the higher notes. 

I think the chords Tom plays here might actually be a little higher. 
can't 100%  figure it out.
Bridge thing:

e|--------8p0-----------8p0-------------8p0--------------------------------|
B|----5/8----8p0----5/8-----8p0-----5/8-----8p0-----15t16------------------|
G|-11------------11--------------11--------------11------------------------|
D|-11------------11--------------11--------------11------------------------|
A|-9-------------9---------------9---------------9-------------------------|
E|-------------------------------------------------------------------------|
                                    trill on the 15 to 16 part.

e|--------8p0-----------8p0-------------8p0--------------------------------|
B|----5/8----8p0----5/8-----8p0-----5/8-----8p0----------------------------|
G|-11------------11--------------11---------------10*----------------------|
D|-11------------11--------------11---------------9-*-9-*-7-*--------------|
A|-9-------------9---------------9----------------8-*-8-*-6-*--------------|
E|----------------------------------------------------7-*-5-*--------------|

* = Listen to the song for the rhythm for these chords.

That's it. Maybe I'll figure out the solo eventually.

| /  slide up
| \  slide down
| h  hammer-on
| p  pull-off
| ~  vibrato
| +  harmonic
| x  Mute note
| b bend note
| t trill
===============================================================================
            
Submit corrections

↑ Back to top | Tablatures and chords for acoustic guitar and electric guitar, ukulele, drums are parodies/interpretations of the original songs. You may use it for private study, scholarship, research or language learning purposes only