Home » T » The Fall Of Troy »

The Fall Of Troy - F.C.P.R.E.M.I.X Bass

Artists:  A B C D E F G H I J K L M N O P Q R S T U V W X Y Z # 

F.C.P.R.E.M.I.X Bass

(ver. 2) Click to play this song!
The Fall Of Troy
I love The Fall Of Troy, and all the tabs i've seen for this have been off, or just 
wrong, or not even complete.

So I did it :D.

I'd say its completely correct except for maybe some timing issues.

Standard tuning E A D G, enjoy!

Oh and ! after a note means to stacatto the note, in other words, kill the note after 
play it.

Intro
G|---------------------------------------------|
D|-777----------------777----------------------|
A|-----8888-777-5555-----8888-777--3-3-3-------|
E|---------------------------------------3-3-3-|

G|------------------------------------|
D|-777----------------777-------------|
A|-----8888-777-5555-----8888-777--3!-|
E|------------------------------------|

G|------------------------------------|
D|-7-7-7---------------777------------|
A|-------8~--7-7-7--5~----8888-777-3--|
E|------------------------------------|

G|---------------------------------|
D|-777---------------777-----------|
A|-----8888-777-5555----8888-77777-|
E|---------------------------------|

Chorus
G|-------------------------------------------------------------|
D|-------------------------------------------------------------|
A|-000000000000-2222-333333333333-5555-----------333333-555555-|
E|-------------------------------------1111-1111---------------|x2

Verse
G|---------------------------------------------|
D|-777----------------777----------------------|
A|-----8888-777-5555-----8888-777--3-3-3-------|
E|---------------------------------------3-3-3-|

G|------------------------------------|
D|-777----------------777-------------|
A|-----8888-777-5555-----8888-777--3!-|
E|------------------------------------|

G|---------------------------------------------|
D|-777----------------777----------------------|
A|-----8888-777-5555-----8888-777--3-3-3-------|
E|---------------------------------------3-3-3-|

G|------------------------------------|
D|-777----------------777-------------|
A|-----8888-777-5555-----8888-777--3!-|
E|------------------------------------|

G|------------------------------------|
D|-7-7-7---------------777------------|
A|-------8~--7-7-7--5~----8888-777-3--|
E|------------------------------------|

G|---------------------------------|
D|-777---------------777-----------|
A|-----8888-777-5555----8888-77777-|

Chorus
G|-------------------------------------------------------------|
D|-------------------------------------------------------------|
A|-000000000000-2222-333333333333-5555-----------333333-555555-|
E|-------------------------------------1111-1111---------------|x2

Bridge
G|-------5-----------------------|
D|------3-3-----------------232--|
A|-5555-----5555-353------3----3-|
E|-------------------5555--------|x4

G|---------------------|
D|---------------------|
A|-5-5-0-0-787-5-5-0-0-|
E|---------------------|

G|-------5-----------------------|---|
D|------3-3-----------------232--|---|
A|-5555-----5555-353------3----3-|---|
E|-------------------5555--------|-0-|x2
                                  2nd time

Sweet little bass solo, i love it.
G|-------20-|
D|---19-----|
A|--0--0----|
E|----------|x16

G|----------------------------------|
D|----------------------------------|
A|-00000-7-00000-7-00000-7--555-666-|
E|----------------------------------|x4

Chorus/Outro
G|-------------------------------------------------------------|
D|-------------------------------------------------------------|
A|-000000000000-2222-333333333333-5555-----------333333-555555-|
E|-------------------------------------1111-1111---------------|x2

G|---------------------------------------------|
D|-777----------------777----------------------|
A|-----8888-777-5555-----8888-777--3-3-3-------|
E|---------------------------------------3-3-3-|

G|------------------------------------|
D|-777----------------777-------------|
A|-----8888-777-5555-----8888-777--3!-|
E|------------------------------------|
            
Submit corrections

↑ Back to top | Tablatures and chords for acoustic guitar and electric guitar, ukulele, drums are parodies/interpretations of the original songs. You may use it for private study, scholarship, research or language learning purposes only