Home » T » The Fall Of Troy »

The Fall Of Troy - Caught Up Tabs

Artists:  A B C D E F G H I J K L M N O P Q R S T U V W X Y Z # 

Caught Up Tabs

(ver. 3) Click to play this song!
The Fall Of Troy
***Note: strumming is not displayed here. These are just the chords to play, you can figure out the rest***

Verse
E--7---7---8---7---3---2---0--------3---0---0---0---3---2---0---]
B--8---7---8---7---0---0---0--------3---1---8--10---0---0---0---]
G--7---8---9---7---3---2---0--------0---3---9--12---3---2---0---]
D--9---9--10---9---2---1---2--------0---2--10--13---2---1---2---]
A------------------3---2---2--------2---------------3---2---2---]
E--------------------------0-0-2-3--3-----------------------0---]

Chorus
E--7---5--10/12--10--55---5-7-8-----------
B--8---7--10/12--10--55---5-5-5---8--10---
G--9---7------------------5-5-5---7---9---
D-10---7------------------7-7-7---9--10---
A--0--------------------------------------
E-----------------------------------------

Chorus (cont'd)
E--7---5--10/12--10--55---3---2---0---]
B--8---7--10/12--10--55---0---0---0---]
G--9---7------------------3---2---0---]
D-10---7------------------2---1---2---]
A--0----------------------3---2---2---]
E---------------------------------0---]

Verse
E--7---7---8---7---3---2---0--------3---0---0---0---3---2---0---]
B--8---7---8---7---0---0---0--------3---1---8--10---0---0---0---]
G--7---8---9---7---3---2---0--------0---3---9--12---3---2---0---]
D--9---9--10---9---2---1---2--------0---2--10--13---2---1---2---]
A------------------3---2---2--------2---------------3---2---2---]
E--------------------------0-0-2-3--3-----------------------0---]

Chorus
E--7---5--10/12--10--55---5-7-8-----------
B--8---7--10/12--10--55---5-5-5---8--10---
G--9---7------------------5-5-5---7---9---
D-10---7------------------7-7-7---9--10---
A--0--------------------------------------
E-----------------------------------------

Chorus (cont'd)
E--7---5--10/12--10--55---3---2---0---]
B--8---7--10/12--10--55---0---0---0---]
G--9---7------------------3---2---0---]
D-10---7------------------2---1---2---]
A--0----------------------3---2---2---]
E---------------------------------0---]

Bridge
E--12---7---5---3---2---12---7---5---3---2---]
B--xx---7---5---0---0---xx---7---5---0---0---]
G--12---7---5---3---2---12---7---5---3---2---]
D--10---9---7---2---1---10---9---7---2---1---]
A--12-----------3---2---12-----------3---2---]
E--------------------------------------------]

Ending (repeated)
E--0-------0---2---]
B--0-------0---0---]
G--0---0---0---2---]
D--2---0---2---1---]
A--2---2---2---2---]
E--0---3---0-------]
            
Submit corrections

↑ Back to top | Tablatures and chords for acoustic guitar and electric guitar, ukulele, drums are parodies/interpretations of the original songs. You may use it for private study, scholarship, research or language learning purposes only