Home » T » The Fall »

The Fall - Theme From Sparta Fc Tabs

Artists:  A B C D E F G H I J K L M N O P Q R S T U V W X Y Z # 

Theme From Sparta Fc Tabs

(ver. 1) Click to play this song!
The Fall
Intro:

e|-0--0--0--0--0--0--0-0-0-0-0-0-0-0-0---0-0-0-0---0-0-0-0---0-0-0-0---0-0-0-0-|
B|-12-12-11-11-10-10-8-8-7-7-5-5-3-3-3-/-5-5-5-5-/-7-7-7-7-/-8-8-8-8-\-3-3-3-3-|
G|-----------------------------------------------------------------------------|
D|-----------------------------------------------------------------------------|
A|-----------------------------------------------------------------------------|
E|-----------------------------------------------------------------------------|

e|-0--0--0--0--0--0--0-0-0-0-0-0-0-0-0-----0--0--0--0--0--0--0-0-0-0-0-0-0-0-0-| This riff repeats later
B|-12-12-11-11-10-10-8-8-7-7-5-5-3-3-3--/--12-12-11-11-10-10-8-8-7-7-5-5-3-3-3-| the song
G|-----------------------------------------------------------------------------|
D|-----------------------------------------------------------------------------|
A|-----------------------------------------------------------------------------|
E|-----------------------------------------------------------------------------|

Verses:

  E5

e|---------------------------------------------------------------------------|
B|---------------------------------------------------------------------------|
G|-9-9---9-9---9-9---9-------------------------------------------------------|
D|-9-9---9-9---9-9---9-------------------------------------------------------|
A|-7-7---7-7---7-7---7-------------------------------------------------------|
E|-0-0---0-0---0-0---0-------------------------------------------------------|

Prechorus:

  G5               A5               G5               A5

e|---------------------------------------------------------------------------|
B|---------------------------------------------------------------------------|
G|---------------------------------------------------------------------------|
D|-5-5-5-5-5-5-5----7-7-7-7-7-7-7----5-5-5-5-5-5-5----7-7-7-7-7-7-7----------|
A|-5-5-5-5-5-5-5----7-7-7-7-7-7-7----5-5-5-5-5-5-5----7-7-7-7-7-7-7----------|
E|-3-3-3-3-3-3-3----5-5-5-5-5-5-5----3-3-3-3-3-3-3----5-5-5-5-5-5-5----------|

            
Submit corrections

↑ Back to top | Tablatures and chords for acoustic guitar and electric guitar, ukulele, drums are parodies/interpretations of the original songs. You may use it for private study, scholarship, research or language learning purposes only