Home » T » The Fall »

The Fall - The Man Whose Head Expanded Bass

Artists:  A B C D E F G H I J K L M N O P Q R S T U V W X Y Z # 

The Man Whose Head Expanded Bass

(ver. 1) Click to play this song!
The Fall
-------------------------------------------------------------------------------
-------------------------------------------------------------------------------



Tuning: EADG


Unlike the rest of the tabs I usually submit, I'll not make an exact
approach of how to play this song section by section, because it'd be quite
long and basically just repeating the same pattern over and over except for
some little changes here and there. So, I'll try to make this tab a little
bit more simple.



This is the main bass riff which goes all over the song:

G|-------------------------|
D|-------------------------|
A|---2----2----2----2----2-|
E|-0---00---00---00---00---|



Some of the changes are these, just listen to the song to know when to play each one:

G|----------|
D|----------|
A|--------0-|
E|-0-22-3---|

G|-----------|
D|-2-0-------|
A|-----2-0---|
E|---------3-|

G|-----------|
D|-----------|
A|-2-0-------|
E|-----3-222-|


As simple as that. Enjoy!
            
Submit corrections

↑ Back to top | Tablatures and chords for acoustic guitar and electric guitar, ukulele, drums are parodies/interpretations of the original songs. You may use it for private study, scholarship, research or language learning purposes only