Home » T » The Faceless »

The Faceless - All Dark Graves Bass

Artists:  A B C D E F G H I J K L M N O P Q R S T U V W X Y Z # 

All Dark Graves Bass

(ver. 1) Click to play this song!
The Faceless
 Rating:
4.2/5 (5 votes)
                -------------------------------------------------------------------------------
			     All the Dark Graves - The Faceless
-------------------------------------------------------------------------------


Note: This Tab is only for the first minute of the song. The rest is still being worked 
I’ll update this once
I’ve worked out the bass for it.
Have fun with this insane song.

Played in Drop C tuning. (C-G-C-F)

Intro - (0:07 - 0:23)

F|-----------------------------------------------------------------|
C|-----------------------------------------------------------------|
G|-----------------------------------------------------------------|
C|-0~--0--1----6~---0~--0---1----66---0~----0---1----6----0~-------|

~ = Let ring

Riff 1 -

F|-----------10-9-8-7----------------------------|
C|----10-9-7----------9--8--7--6-----------------|
G|-----------------------------------------------|
C|-----------------------------------------------|

F|----------------------------------------------------------|
C|----------------------------------------------------------|
G|-------555577778888----7777888810101010-------------------|
C|---0000------------5555-----------------------------------|

(Play this 4 times between 0:23 and 0:45)


Riff 2 - (0:45 - 0:53)

F|-----------------------------------------------------------------|
C|-----6---6/8-----6----6/8--------8---8--------8---10-------------|
G|-------------------------------9---9--------9---9----------------|
C|-7-7---7------7-7---7------9-9----------9-9----------------------|

F|-----------------------------------------------------------------|
C|-----------------------------------------------------------------|
G|6------6-------5-------5-------6-------6-------6-------6---------|
C|-0-0-0---0-0-0---0-0-0---0-0-0---0-0-0---0-0-0---1-1-1---1-1-1---|

F|-----------------------------------------------------------------|
C|-----------------------------------------------------------------|
G|------------3-0-3-1----------------------------------------------|
C|----5--4---------------------------------------------------------|


Then Riff 1 once more -  (0:53 - 1:06)

F|------------------------10--9--8--7------------------------------|
C|----10----9----7----------------------9--8--7--6-----------------|
G|-----------------------------------------------------------------|
C|-----------------------------------------------------------------|

F|-------------------------------------------------------------------|
C|-------------------------------------------------------------------|
G|----------555577778888------7777888810101010-----------------------|
C|---0000----------------5555----------------------------------------|

F|------------------------10--9--8--7------------------------------|
C|----10----9----7----------------------9--8--7--6-----------------|
G|-----------------------------------------------------------------|
C|-----------------------------------------------------------------|

G|-------------------------------------------------------------------|
C|-------------------------------------------------------------------|
G|----------555577778888------7777888810101010-----------------------|
C|---0000----------------5555----------------------------------------|

F|-------------------------------------------------------------------|
C|-------------------------------------------------------------------|
G|----------555577778888------7777888810101010-----------------------|
C|---0000----------------5555----------------------------------------|

The rest of the song is pretty tricky. There’s a lot of room for improvisation if you 
lost during the song.
Knowing the basic pattern of the electric riff will help a lot. I’ll update this once 
worked out the bass for it.
Have fun with this insane song. Rate or comment me if you see something glaringly wrong.
            
Submit corrections

↑ Back to top | Tablatures and chords for acoustic guitar and electric guitar, ukulele, drums are parodies/interpretations of the original songs. You may use it for private study, scholarship, research or language learning purposes only