» » »

The Dodos - Paint The Rust Tabs

Artists:  A B C D E F G H I J K L M N O P Q R S T U V W X Y Z # 

Paint The Rust Tabs

(ver. 1) Click to play this song!
The Dodos
 Rating:
3.7/5 (6 votes)


 Paint The Rust lessons Tabs too difficult? Try these video lessons and learn fast
 
                The Dodos
Paint the Rust
Visiter

Open G tuning, as with most Dodos songs.

Intro, repeat as necessary
|--0h2--0--------0-0h2--0-------0-3---3-0-2---2-|
|---------0-3h0-----------0-3-0-----0-------0---|
|-----------------------------------------------|
|-----------------------------------------------|
|-----------------------------------------------|
|-----------------------------------------------|

Intro breakdown, repeat as necessary and proceed to bar above
|--0h2--0--------0-0h2---------------------------|
|---------0-3h0---------0-3h0------------------0-|
|------------------------------0-3-4-3-3-2-0-0---|
|------------------------------------------------|
|------------------------------------------------|
|------------------------------------------------|

Verse...
|------------0-2-0---------------------|
|--0-0-3-0-3-------0-0-3-0-3-0-------0-|
|------------------------------3-0-3---|
|--------------------------------------|
|--------------------------------------|
|--------------------------------------|

Please, just tell us what you want we'll get it for you!
|--------------------------------|
|--------------------------------|
|--10---10-10-9-7-9-7-6-7--------|
|-------------------------5-8-10-|
|--------------------------------|
|--------------------------------|

I'm not here to give you a lesson in slide, so here are the chords. Rock out, melt 
etc etc.

|--5--3-0-12-5-3-0-3-|
|--5--3-0-12-5-3-0-3-|
|--5--3-0-12-5-3-0-3-|
|--5--3-0-12-5-3-0-3-|
|--5--3-0-12-5-3-0-3-|
|--5--3-0-12-5-3-0-3-|

Home, to come, I only need you when I'm down
|--0-0h2--0h4--4h-5-4-2-4-0-2-|
|--0-0----0-------------------|
|--0-0----0-------------------|
|-----------------------------|
|-----------------------------|
|-----------------------------|

...I won't forget I will keep you here inside my head (slide to 12 on head and proceed 
rock out once more)
|--0-0h-2-0------------5--0-3-0-12-|
|----------0-3-0-------5--0-3-0-12-|
|----------------3-0-3-5--0-3-0-12-|
|----------------------5--0-3-0-12-|
|----------------------5--0-3-0-12-|
|----------------------5--0-3-0-12-|

Here we are, pass the stone...
|--0-0-0-0-0-0-|
|--0-3-0-5-3-0-|
|--0-0-0-0-0-0-|
|--0-0-0-0-0-0-|
|--0-0-0-0-0-0-|
|--0-0-0-0-0-0-|

Repeat slide guitar rock out until your listeners are sufficiently sated with Dodos 
Go to intro.
            
Submit corrections



        Paint The Rust lessons Hard to play? Try these video lessons and learn fast Paint The Rust lessons
        
↑ Back to top | Tablatures and chords for acoustic guitar and electric guitar, ukulele, drums are parodies/interpretations of the original songs. You may use it for private study, scholarship, research or language learning purposes only