» » »

The Dear Hunter - Blood Of The Rose Tabs

Artists:  A B C D E F G H I J K L M N O P Q R S T U V W X Y Z # 

Blood Of The Rose Tabs

(ver. 1) Click to play this song!
The Dear Hunter
 Rating:
4.3/5 (6 votes)

 Blood Of The Rose lessons Tabs too difficult? Try these video lessons and learn fast
 
                -------------------------------------------------------------------------------
                    Blood of the Rose– The Dear Hunter
-------------------------------------------------------------------------------

Tuning: Standard
This is a great song from a band that hasn't attained the fame it deserves.
I have long fingers so this is the best way for me to play this and still retain the 
of the string section.
Listen to the song for the rhythms and style. If anything is wrong
please e-mail me or comment. Have fun.


  Bm                                            G        F#
e|----------------------------------------------------------------|
B|----------------------------------------------------------------|
G|--------------------------------------------------4---------3---|
D|-----12----------12---------12---------12-----------------------|
A|---9----9------9----9-----11--11-----11--11-----5---5-----4---4-|
E|7-----------7----------7----------7----------3---------2--------|
   Bm
e|-----------------------------|
B|-----------------------------|
G|-----------------------------|
D|-----------------------------|
A|-----------------------------|
E|7-3-2-6-10-9-7-2-7-----------|

Bm                              G     F#                         Bm
Dance, dance your decay all the while unknowing you’re led astray

Bm                                       G            F#                  Bm
Sleep, sleep through your woe while your voice slowly withers and melts away

Bm               G            F#
Sing unto me the pleasure and pain

Bm               G                       F#
Reveal to me the reasons my loves not in vain

Bm
Sangre, sangre de la rosa

        G          F#   Bm
Sige en paz sin el pasado

Bm
Rese, rese por su alma

     G           F#
Ellamurira en el bautismo de el fuego

Bm               G            F#
Sing unto me the pleasure and pain

Bm               G                       F#
Reveal to me the reasons my loves not in vain

Not the exact rhythms but listen to the song and you can figure them out easily.

e|------------------------------------------------------------------|
B|------------------------------------------------------------------|
G|------------------------------------------------------------------|
D|------------------------------------------------------------------|
A|8--8-8-8--8-8-8--8-8-8--8--5--5-5-5--5-5-5--5-5-5--5--------------|
E|6--6-6-6--6-6-6--6-6-6--6--3--3-3-3--3-3-3--3-3-3--3--------------|


Gm                           C
The world burns but still we breathe...

Gm                         C
The iron chambered heart a sieve

Gm                            C
that sifts through honest elegance and

Gm                        C
suffers from the wrong defense

End with the intro section


| /  slide up
| \  slide down
| h  hammer-on
| p  pull-off
| ~  vibrato
| +  harmonic
| x  Mute note
===============================================================================
            
Submit corrections


        Blood Of The Rose lessons Hard to play? Try these video lessons and learn fast Blood Of The Rose lessons
        
↑ Back to top | Tablatures and chords for acoustic guitar and electric guitar, ukulele, drums are parodies/interpretations of the original songs. You may use it for private study, scholarship, research or language learning purposes only