» » »

The Dead Weather - Rough Detective Tabs

Artists:  A B C D E F G H I J K L M N O P Q R S T U V W X Y Z # 

Rough Detective Tabs

(ver. 1) Click to play this song!
The Dead Weather
 Rating:
3.2/5 (27 votes)

 Rough Detective  lessons Tabs too difficult? Try these video lessons and learn fast
 
                Tuning: Standard

e|--12s10--------------------------------------------------------------------|
B|-----------------12s10----------8s10---------------------------------------|
G|----------------------------------------------7s9--------------------------|
D|---------------------------------------------------------------------------|
A|---------------------------------------------------------------------------|
E|---------------------------------------------------------------------------|

e|--------------------------------------------------------|
B|--------------------------------------------------------|
G|--------------------------------------------------------|
D|--------------------------------------------------------|
A|--7--7--5-----7~-----7--7--5-----5~-----7--7--5-----7~--|
E|-----------7------------------7------------------7------|
            
Submit corrections


        Rough Detective  lessons Hard to play? Try these video lessons and learn fast Rough Detective  lessons
        
↑ Back to top | Tablatures and chords for acoustic guitar and electric guitar, ukulele, drums are parodies/interpretations of the original songs. You may use it for private study, scholarship, research or language learning purposes only