» » »

The Dead Weather - Rough Detectiv Tabs

Artists:  A B C D E F G H I J K L M N O P Q R S T U V W X Y Z # 

Rough Detectiv Tabs

(ver. 1) Click to play this song!
The Dead Weather
 Rating:
3.9/5 (20 votes)

 Rough Detectiv  lessons Tabs too difficult? Try these video lessons and learn fast
 
                Intro + 1st verse

e|--12\10--------------------------------------------------------------------|
B|-----------12\10-----------------------------------------------------------|
G|-------------------12/14---------------------------------------------------|
D|---------------------------12/14---(x8)------------------------------------|
A|---------------------------------------------------------------------------|
E|---------------------------------------------------------------------------|


Bass guitar for 1st verse (it starts when the guitar has played the intro 2 times)

e|-----------------------------|---------------------------------------------------------------------------|
B|-----------------------------|---------------------------------------------------------------------------|
G|-----------------------------|-----------0-(let-ring)----------------------------------------------------|
D|---2p0--------------0h2--(x6)|---2-2-0-2---------------2-2-0-2-0-(let-ring)---------2-2-0-2-2-(let-ring)-|
A|---------2p0-----------------|---------------------------------------------------------------------------|
E|---------------3/5-----------|---------------------------------------------------------------------------|
                                                                                 (guitar plays this part too)

Chorus (only bass guitar)

e|---------------------------------------------------------------------------|
B|---------------------------------------------------------------------------|
G|---------------------------------------------------------------------------|
D|---2p0--------------0h2---(x4)---------------------------------------------|
A|---------2p0---------------------------------------------------------------|
E|---------------3/5---------------------------------------------------------|

2nd verse (only bass guitar, same as 1st verse)

e|-----------------------------|---------------------------------------------------------------------------|
B|-----------------------------|---------------------------------------------------------------------------|
G|-----------------------------|-----------0-(let-ring)----------------------------------------------------|
D|---2p0--------------0h2--(x6)|---2-2-0-2---------------2-2-0-2-0-(let-ring)---------2-2-0-2-2-(let-ring)-|
A|---------2p0-----------------|---------------------------------------------------------------------------|
E|---------------3/5-----------|---------------------------------------------------------------------------|
                                                                                 (guitar plays this part too)

Chorus: same as the 1st chorus


Solo (starts at 01:55).

e|---------------------------------------12\10----12\10------------------------------------|
B|-----------12\10-------------------------------------------------------------------------|
G|-----------------------------------------------------------------------------------------|
D|-------------------12/14-----12/14-------------------------------------------------------|
A|-----------------------------------------------------------------------------------------|
E|-----------------------------------------------------------------------------------------|

The base guitar plays this during the solo.

e|-----------------------------------------------------------------------------------------|
B|-----------------------------------------------------------------------------------------|
G|-----------------------------------------------------------------------------------------|
D|---2p0-------------------0h2--------2p0----------------------------2-2-------------------|
A|---------2p0---------------------------------2p0-----------------------------------------|
E|-----------------3/5------------------------------------3/5------------------------------|

Then the weird sounds start... At the end of those sounds the bass guitar plays this:

e|--------------------------|
B|--------------------------|
G|--------------------------|
D|-2-2------2-2------2-2----|
A|--------------------------|
E|--------------------------|

Then the chorus (8 times) and the outro:

e|-----------------------------|---------------------------------------------------------------------------|
B|-----------------------------|---------------------------------------------------------------------------|
G|-----------------------------|-----------0-(let-ring)----------------------------------------------------|
D|---2p0--------------0h2--(x8)|---2-2-0-2---------------2-2-0-2-0-(let-ring)---------2-2-0-2-2-(let-ring)-|
A|---------2p0-----------------|---------------------------------------------------------------------------|
E|---------------3/5-----------|---------------------------------------------------------------------------|
                                                                                 (guitar plays this part too)            
Submit corrections


        Rough Detectiv  lessons Hard to play? Try these video lessons and learn fast Rough Detectiv  lessons
        
↑ Back to top | Tablatures and chords for acoustic guitar and electric guitar, ukulele, drums are parodies/interpretations of the original songs. You may use it for private study, scholarship, research or language learning purposes only