» » »

The Dead Weather - Let Me Through Tabs

Artists:  A B C D E F G H I J K L M N O P Q R S T U V W X Y Z # 

Let Me Through Tabs

(ver. 1) Click to play this song!
The Dead Weather
 Rating:
2.6/5 (28 votes)

 Let Me Through  lessons Tabs too difficult? Try these video lessons and learn fast
 
                Tuning: Standard

Bass line (played thru some fuzz or EHX Bass micro synth)

G|---------------------------------------------------------------------------|
D|--------------4------------------------------------------------------------|
A|--6-6-6-6-6-6---6-4---4-5-6------------------------------------------------|
E|--------------------6------------------------------------------------------|

Guitar 0:21 (played thru some fuzz/octaver like the Earthquaker Devices Bit commander or Big Muff + POG)

e|---------------------------------------------------------------------------|
B|---------------------------------------------------------------------------|
G|-----------------11--------------------------------------------------------|
D|--11h13p11h13p11----11h13--------------------------------------------------|
A|---------------------------------------------------------------------------|
E|---------------------------------------------------------------------------|

0:33 

e|---------------------------------------------------------------------------|
B|---------------------------------------------------------------------------|
G|-----------11--------------------------------------------------------------|
D|--11-13-11----11-13------------------------------11-12-11-13---------------|
A|------------------------------------9-11-9-11s13---------------------------|
E|---------------------------------------------------------------------------|

Then the guitar probably doubles up with the bass 

e|---------------------------------------------------------------------------|
B|---------------------------------------------------------------------------|
G|---------------------------------------------------------------------------|
D|--4------------------------------------------------------------------------|
A|----6-4---4-5-6------------------------------------------------------------|
E|--------6------------------------------------------------------------------|

Repeat this from 1:08 to 1:20 

e|---------------------------------------------------------------------------|
B|---------------------------------------------------------------------------|
G|---------------------------------------------------------------------------|
D|--11h12h13-----------------------------------------------------------------|
A|---------------------------------------------------------------------------|
E|---------------------------------------------------------------------------|

1:21

e|---------------------------------------------------------------------------|
B|---------------------------------------------------------------------------|
G|-----------11--------------------------------------------------------------|
D|--11-13-11----13-----------------------------------------------------------|
A|---------------------------------------------------------------------------|
E|---------------------------------------------------------------------------|

1:36

e|---------------------------------------------------------------------------|
B|--------------------14-----------------------------------------------------|
G|-----------11h13s15--------------------------------------------------------|
D|--11h12h13-----------------------------------------------------------------|
A|---------------------------------------------------------------------------|
E|---------------------------------------------------------------------------|

1:54 overdriven guitar (repeat and do variations necessary) 

e|---------------------------------------------------------------------------|
B|-----------------11-13-11--------------------------------------------------|
G|--12---12---12---11-13-11--------------------------------------------------|
D|--13---13---13-------------------------------------------------------------|
A|---------------------------------------------------------------------------|
E|---------------------------------------------------------------------------|


2:40 (really low, dive bomb like distorted effect for bend and then clean)
repeat and do variations as necessary until solo

e|---------------------------------------------------------------------------|
B|----------13-13-13--11-----------------------------------------------------|
G|----------13-13-13--11-----------------------------------------------------|
D|---------------------------------------------------------------------------|
A|---------------------------------------------------------------------------|
E|---9b11--------------------------------------------------------------------|

Solo 3:09 (fuzz/octaver)

e|---------------------------------------------------------------------------|
B|---14b16-------------------------------------------------------------------|
G|---------13p11------------------11-----------------------------------------|
D|---------------13---11-11h12h13----13--------------------------------------|
A|---------------------------------------------------------------------------|
E|---------------------------------------------------------------------------|

e|---------------------------------------------------------------------------|
B|---14b16-------------------------------------------------------------------|
G|---------13b14br13-p11h13~-------------------------------------------------|
D|---------------------------11-11h12h13~------------------------------------|
A|---------------------------------------------------------------------------|
E|---------------------------------------------------------------------------|

e|---------16b17br16-p14h16~-------------------------------------------------|
B|---14b16---------------------------------------14-14-11-14-14-16~----------|
G|---------------------------------------11----------------------------------|
D|---------------------------11-11h12h13----13-------------------------------|
A|---------------------------------------------------------------------------|
E|---------------------------------------------------------------------------|

3:50 is repeated with variations till the end

e|---------------------------------------------------------------------------|
B|----------13-13-13--13---11-11-11--11--------------------------------------|
G|----------13-13-13--13---11-11-11--11--------------------------------------|
D|---------------------------------------------------------------------------|
A|---------------------------------------------------------------------------|
E|---9b11--------------------------------------------------------------------|            
Submit corrections


        Let Me Through  lessons Hard to play? Try these video lessons and learn fast Let Me Through  lessons
        
↑ Back to top | Tablatures and chords for acoustic guitar and electric guitar, ukulele, drums are parodies/interpretations of the original songs. You may use it for private study, scholarship, research or language learning purposes only