Home » T » The Clientele »

The Clientele - An Hour Before The Light Tabs

Artists:  A B C D E F G H I J K L M N O P Q R S T U V W X Y Z # 

An Hour Before The Light Tabs

(ver. 1) Click to play this song!
The Clientele
(Intro)
-----------------------------------------------------------------------------
		   AN HOUR BEFORE THE LIGHT - The Clientele
-----------------------------------------------------------------------------

Tuning: Standard

The intro chord similar to Dadd9;

    0
    3
    0
    4
    5
    5


e|-----------------0-----------------0---------------0-----------------|
B|---------------------------------------------------------------------|
G|---------------0---0-------------0---0-----------0---0---------------|
D|---------4---4-------4-----4---4-------4----4---4------4-------------|
A|---------------------------------------------------------------------|
E|-------5---5-------------5---5------------5---5----------------------|
            
Submit corrections

↑ Back to top | Tablatures and chords for acoustic guitar and electric guitar, ukulele, drums are parodies/interpretations of the original songs. You may use it for private study, scholarship, research or language learning purposes only