Home » T » The Chariot »

The Chariot - They Drew Their Swords Tabs

Artists:  A B C D E F G H I J K L M N O P Q R S T U V W X Y Z # 

They Drew Their Swords Tabs

(ver. 1) Click to play this song!
The Chariot
The Chariot
Drop B

E-----------------------------------|
B-----------------------------------|
G--8-8-8-8-8-8-8-8-8-8-8-8-8-8-7/11-|
D--8-8-8-8-8-8-8-8-8-8-8-8-8-8-7/11-|
A--6-6-6-6-6-6-6-6-6-6-6-6-6-6-5/9--|
E-----------------------------------|

E--------------|
B--------------|
G--------------|
D--------------|
A------4-------|
E--0-7---7b-0--|

E--0-----------------------------------------------------------------------|
B--0-----------------------------------------------------------------------|
G--0-------------feedback--------------------------------------------------|
D--0-----------------------------------------------------------------------|
A--0-----------------------------------------------------------------------|
E--0-----------------------------------------------------------------------|

Here we go:
The strange chords here are thrown around
a little, but I think you can get the right
ones at the right time. There's just some
variations of the timing.
E------------------------------------|
B-----------0-0-0--1-1-1--2-2-2------|
G-----------3-3-3--4-4-4--5-5-5------|
D--0---0-----------------------------|
A--0---0-----------------------------|
E--0---0-----------------------------|

E-------------|
B-----------4-|
G-----------7-|
D--2--2--x----|
A--2--2--x----|
E--2--2--x----|

Thank You! Plz comment!
            
Submit corrections

↑ Back to top | Tablatures and chords for acoustic guitar and electric guitar, ukulele, drums are parodies/interpretations of the original songs. You may use it for private study, scholarship, research or language learning purposes only