Home » T » The Cat Empire »

The Cat Empire - Sunny Moon Bass

Artists:  A B C D E F G H I J K L M N O P Q R S T U V W X Y Z # 

Sunny Moon Bass

(ver. 1) Click to play this song!
The Cat Empire
[Intro] ...alone into the night
 
 |1+2+3+4+|
G|--------|--------|--------|--------|
D|--------|--------|--------|--------|
A|--------|--------|--------|--------|
E|3-------|--------|2-------|--------|
 
[Verse 1] Tonight I see...
 
 |1+2+3+4+|
G|--------|--------|--------|--------|--------|--------|
D|--------|--------|--------|--------|--------|0-------|
A|2----0--|--------|--------|2-------|--------|--------|
E|-------3|--------|2-------|--------|3-------|--------|
 
G|--------|--------|--------|------4/|6-------|--------|
D|--------|--------|--------|0-------|----7---|4-------|
A|0-------|2-------|--------|--------|--------|--------|
E|--------|--------|3-------|--------|--------|--------|
 
[Chorus]
 
 |1 + 2 + 3 + 4 + |
G|----------------|----------------|----------------|----------------|
D|----4-------2---|----4-------2---|----4-------2---|----4---5-------|
A|2------0-------x|2------0-------x|2------0-------x|2---------------|
E|----------------|----------------|----------------|---------x3-3-5-|
 
G|---2/3-2--------|----------------|----------------|---------------/|
D|0-----------2---|----4-------2---|----4-------2---|----4---5-------|
A|---------------x|2------0-------x|2------0-------x|2---------------|
E|----------------|----------------|----------------|---------x3-3-5-|
 
G|6--------------\|2---------------|
D|----------------|----------------|
A|----------------|----------------|
E|----------------|----------------|
 
[Verse 2] You may forget...
 
 |1+2+3+4+|
G|--------|--------|--------|--------|--------|--------|--------|--------|
D|--------|0-------|--------|--------|--------|--------|--------|--------|
A|--------|--------|0-------|2-------|--------|--------|2-------|2-------|
E|3-------|--------|--------|--------|3-------|3---2---|----2---|----3---|
 
                            |1 + 2 + 3 + 4 + |
G|--------|--------|--------|----------------|--------|--------|
D|--------|--------|--------|---------4------|--------|--------|
A|0-------|0-------|5-------|----5\-----5-2--|--------|--------|
E|--------|--------|--------|---------------3|2-------|--------|
 
[Chorus]
 
 |1 + 2 + 3 + 4 + |
G|----------------|----------------|----------------|----------------|
D|----4-------2---|----4-------2---|----4-------2---|----4---5-------|
A|2------0-------x|2------0-------x|2------0-------x|2---------------|
E|----------------|----------------|----------------|---------x3-3-5-|
 
G|---2/3-2--------|----------------|----------------|----------------|
D|0----------x2---|----4------x2---|----4------x2---|----4--5-x4-2---|
A|----------------|2------0-------x|2------0-------x|2-------------5-|
E|----------------|----------------|----------------|----------------|
 
 |1 + 2 + 3 + 4 + |1 + 2 + 3 + 4 + |
G|----------------|----------------|
D|----------------|----------------|
A|----------------|----------------|
E|22----22--------|--2--2--2--2--2-|
 
[Trumpet solo]
 
 |1 + + + 2 + + + 3 + + + 4 + + + |1 + + + 2 + + + 3 + + + 4 + + + |
G|----------------------4-4-------|--------6---------2---3-4-------|
D|--------4-----2-------------4---|4-------------2-----------------|
A|2-------------------------------|----------------------------x-x-|
E|--------------------------------|--------------------------------|
 
G|----------------------4-4-------|--------6---------2---3-4-------|
D|--------4-----2-------------4---|4-------------2-----------------|
A|2-------------------------------|----------------------------x-x-|
E|--------------------------------|--------------------------------|
 
G|----------------------4-4-------|--------6---------2---3-4-------|
D|--------4-----2-------------4---|4-------------2-----------------|
A|2-------------------------------|----------------------------x-x-|
E|--------------------------------|--------------------------------|
 
G|----------------------4-4-------|--------------------------------|
D|--------4-----2-----------------|--------------------------------|
A|2---------------------------0---|2---2---2---2---0---0---0---0---|
E|--------------------------------|--------------------------------|
 
[Bridge]
 
 |1 + + + 2 + + + 3 + + + 4 + + + |1 + + + 2 + + + 3 + + + 4 + + + |
G|--------------------------------|--------------------------------|
D|0-------0-------0---0---0---0---|5-------5-----x-5-0-------------|
A|--------------0-----------------|--------------------------------|
E|--------------------------------|--------------------3---3---3---|
 
G|--------2-------2-------2-------|--------2-------2---------------|
D|--------------------------------|------------------2----2/5--4---|
A|0-------------------------------|0-------------------0-----------|
E|--------------------------------|--------------------------------|
 
G|--------------------------------|--------2-------2---2---2---2---|
D|1-------1-------1---------------|--------------2-----------------|
A|--------------1-----------------|0-------------------------------|
E|--------------------0---3---3---|--------------------------------|
 
G|--------2-------2---2---2-------|--------2-------2-x-------------|
D|--------------2---x-------------|--------------------------------|
A|0-------------------------------|0-------------------0---0-------|
E|--------------------------------|--------------------------------|
 
                                  'sun   -    ny          side'
G|--------------------------------|--------------------------------|--------------------------------|
D|------------------------5-5-5-5-|--------------------------------|--------------------------------|
A|--------2-2-2-2-5-5-5-5---------|--------------------------------|--------------------------------|
E|3-3-3-3-------------------------|2-----------2-------------------|----2-----2-----2--~~~~~~~~~----|
 
[Chorus]
 
G|----------------|----------------|----------------|----------------|
D|----4-------2---|----4-------2---|----4-------2---|----4---5-------|
A|2------0-------x|2------0-------x|2------0-------x|2---------------|
E|----------------|----------------|----------------|---------x3-3-5-|
 
G|---2/3-2--------|----------------|----------------|----------------|
D|0----------x2---|----4------x2---|----4------x2---|----4--x5-------|
A|----------------|2------0-------x|2------0-------x|2---------------|
E|----------------|----------------|----------------|---------x3-3-5-|
 
G|---2/3-2-------2|----------------|----------------|----------------|
D|0-----------2---|----4-x----x2---|----4-------2---|----4---5-------|
A|----------------|2------0-------x|2------0-------x|2---------------|
E|----------------|----------------|----------------|---------x3-3-5-|
 
G|---2/3-2-------2|----------------|----------------|----------------|
D|0----------x2---|----4------x2---|----4------x2---|----4---5-5-5-5-|
A|----------------|2------0-------x|2------0--------|2---------------|
E|----------------|----------------|----------------|----------------|
 
G|6-6-6-6-6-6-6\--|----------------|
D|----------------|----------------|
A|----------------|0---------------|
E|----------------|----------------|
            
Submit corrections

↑ Back to top | Tablatures and chords for acoustic guitar and electric guitar, ukulele, drums are parodies/interpretations of the original songs. You may use it for private study, scholarship, research or language learning purposes only