» » »

The Cat Empire - On My Way Bass

Artists:  A B C D E F G H I J K L M N O P Q R S T U V W X Y Z # 

On My Way Bass

(ver. 1) Click to play this song!
The Cat Empire
 Rating:
4/5 (4 votes)

 On My Way lessons Tabs too difficult? Try these video lessons and learn fast
 
                -------------------------------------------------------------------------------
                                Cat empire - on my way
-------------------------------------------------------------------------------

Tuning: Standard

G|------------------------|------------------|-----------------|
D|------------------------|------------------|-----------------|
A|-9\--------999777555444-|-2-----5----------|-2----5----------|
E|---2-2-2-2--------------|----------2--2-25-|---------2--2-25-|

G|---------------------4-2-------------------------|
D|----------/7-5-----------5-4---------------------|
A|---------------5--------------------999777555444-|
E|-3---3/53--------3--5-------2-2-2-2--------------|

Refrein:
G|------------------------------------------------------------| 
D|--------------/7-77-7-5-7-5-7--------------/7-77-7-5-7-9-12-| 
A|-2-22-2/5-55-5----------------2-22-2/5-55-5-----------------| 
E|------------------------------------------------------------| 

G|-----------------------------------------------------------------------------------------------|
D|-----------------------------------------------------------------------------------------------|
A|-5/7777-7-5/7777-7-5/7777-7-5/7777-7-7/10101010-10-7/10101010-10-10/12121212-12-10/12121212-12-|
E|-----------------------------------------------------------------------------------------------|


G|------------------|-----------------| 
D|------------------|-----------------|
A|-2-----5----------|-2----5----------|
E|----------2--2-25-|---------2--2-25-|

G|---------------------4-2-------------------------|
D|----------/7-5-----------5-4---------------------|
A|---------------5--------------------999777555444-|
E|-3---3/53--------3--5-------2-2-2-2--------------|

G|------------------------------------------------------------| 
D|--------------/7-77-7-5-7-5-7--------------/7-77-7-5-7-9-12-| 
A|-2-22-2/5-55-5----------------2-22-2/5-55-5-----------------| 
E|------------------------------------------------------------| 

G|-----------------------------------------------------------------------------------------------|
D|-----------------------------------------------------------------------------------------------|
A|-5/7777-7-5/7777-7-5/7777-7-5/7777-7-7/10101010-10-7/10101010-10-10/12121212-12-10/12121212-12-|
E|-----------------------------------------------------------------------------------------------|

G|---------------------------------------------|
D|---------------------------------------------|
A|-2222222222225555555555559999999999777555444-|
E|---------------------------------------------|

G|---------------------------|
D|---------------------------|
A|-2-2-4-5-4-2-4-2-1-------1-| x2
E|--2---------2-----4-2-4-5--|

G|-------------4-2------------------------|
D|-----/7-5-------5-4---------------------|
A|---------5-9--------------999777555444--|
E|-33-3--------------2-2-2-2--------------|

G|------------------------------------------------------------| 
D|--------------/7-77-7-5-7-5-7--------------/7-77-7-5-7-9-12-| 
A|-2-22-2/5-55-5----------------2-22-2/5-55-5-----------------| x2
E|------------------------------------------------------------| 

G|-----------------------------------------------------------------------------------------------|
D|-----------------------------------------------------------------------------------------------|
A|-5/7777-7-5/7777-7-5/7777-7-5/7777-7-7/10101010-10-7/10101010-10-10/12121212-12-10/12121212-12-|
E|-----------------------------------------------------------------------------------------------|

G|---------------------------------------------------|
D|---------------------------------------------------|
A|-2-4-5-7\------1-222444555777999111111121212131313-|
E|---------2-4-5-------------------------------------|


G|---------------------------|
D|---------------------------|
A|-2-2-4-5-4-2-4-2-1-------1-| x3
E|--2---------2-----4-2-4-5--|

G|----------------------------------|
D|--------------------------4444\---|
A|-2-2-4-5-4-2-9-7-5-4-2-1--------2-| 
E|--2----------------------2--------|




| /  slide up
| \  slide down
| h  hammer-on
| p  pull-off
| ~  vibrato
| +  harmonic
| x  Mute note
===============================================================================
            
Submit corrections


        On My Way lessons Hard to play? Try these video lessons and learn fast On My Way lessons
        
↑ Back to top | Tablatures and chords for acoustic guitar and electric guitar, ukulele, drums are parodies/interpretations of the original songs. You may use it for private study, scholarship, research or language learning purposes only