Home » T » The Brilliant Green »

The Brilliant Green - Rock N Roll Tabs

Artists:  A B C D E F G H I J K L M N O P Q R S T U V W X Y Z # 

Rock N Roll Tabs

(ver. 1) Click to play this song!
The Brilliant Green
-------------------------------------------------------------------------------
                             Rock n Roll - The Brilliant Green
-------------------------------------------------------------------------------

Tuning: EADGbe


e|----------------------------------------------------------------------|
b|------------------------------------------6~--6-6---6--6\4------------|
G|---------3~--3-5p3---------(7)p5--3---/7------------7--7\5--3--5~-3---|
D|--/3--3----------------3h5--------------------------------------------|
A|--------------------/5------------------------------------------------|
E|----------------------------------------------------------------------|



e|----------------------------------------------------------------------|
b|----------------------------------------------------------------------|
G|--/7--5\3---3---------------------------------------------------------|
D|----------5-----------3-3--5b6----(5pb)6-6-6r5p3---3-5--3-------------|
A|----------------3-3h5----------5----------------5----------5----------|
E|-------------------------------------------------------------6--------|



e|-----------------------------------------------------6-8-8/10--8\6-6--|
b|-----------------------------------------4-----/6---------------------|
G|--------------------------3--5--5-3-3-3----5-3----5-------------------|
D|------------------3-3--5----------------------------------------------|
A|--1h3--1-------/5-----------------------------------------------------|
E|---------1/3-6--------------------------------------------------------|


e|--6-8-----------------------------------------------------------------|
b|-------6~--8--6-8-8/10-8-6-8--6p4-2h3---4-2b3-------2b3-2b3-----------|
G|-------------------------------------3-------3-1-3----------3---------|
D|----------------------------------------------------------------------|
A|----------------------------------------------------------------------|
E|----------------------------------------------------------------------|



e|----6----------------10------8--6-------------------------------------|
b|----6-8---------------------------------------------------------------|
G|--8---8-6h7-----8/10----10\8------------------------------------------|
D|--8---------8-----------------------8-7-------------------------------|
A|----------------------------------------------------------------------|
E|----------------------------------------------------------------------|


| /  slide up
| \  slide down
| h  hammer-on
| p  pull-off
| ~  vibrato
| +  harmonic
| x  Mute note
===============================================================================
            
Submit corrections

↑ Back to top | Tablatures and chords for acoustic guitar and electric guitar, ukulele, drums are parodies/interpretations of the original songs. You may use it for private study, scholarship, research or language learning purposes only