Home » T » The Brilliant Green »

The Brilliant Green - Ash Like Snow Tabs

Artists:  A B C D E F G H I J K L M N O P Q R S T U V W X Y Z # 

Ash Like Snow Tabs

(ver. 3) Click to play this song!
The Brilliant Green
-------------------------------------------------------------------------------
			Ash Like Snow - The Brilliant Green
-------------------------------------------------------------------------------

Tuning: E Standard

Intro

___
1st Half

e|-0------0---0-----0-------------------------|
B|---0-------------------0--------------------|
G|-----0--------------0-----------------------|
D|----------2-------2-------------------------|
A|-------------2----2-------------------------|
E|------------------0-------------------------|


___
2nd Half

Rhythm *Guitar 1*

e|---------------------------------------------------------------------------|
B|---------------------------------------------------------------------------|
G|---------------------------5-5-5-5----8-8-8-8------------------------------|
D|--2-2-2-2--2----5-5-5-5----5-5-5-5----8-8-8-8------------------------------|
A|--2-2-2-2--2----5-5-5-5----3-3-3-3----6-6-6-6------------------------------|
E|--0-0-0-0--0----3-3-3-3----------------------------------------------------|

Lead *Guitar 2*

e|---------------------------------------------------|
B|-----------------15---12---13-----12----10----12---|
G|------------14-------------------------------------|
D|---------------------------------------------------|
A|---------------------------------------------------|
E|---------------------------------------------------|

___________________
Pre - Verse

(Sidenote: pluck open strings but use hammer ons and pull offs on the fretted ones)

e|--------------------------|
B|--------------------------|
G|--------------------------|
D|--------------------------|
A|--------------------------|
E|-0----2---3-3---2---0-----|
  (h)  (h) (h)   (p) (p)     x2 then proceed below

e|---0----0--------------0-----------|
B|-0-----0-----0-------0---------0---|
G|------------0-----------------0----|
D|-----------------------------------|
A|-----------------------------------|
E|-0----2---3-3---2----0---2---3-----|
  (h)  (h) (h)   (p)  (p)


___________________
Verse

(Sidenote: Immediately continue from Pre - Verse)

*1st Part*

e|-------------------------------------------------------------------|
B|-------------------------------------------------------------------|
G|----------5555-x-55-55----99-9-9-99---77-7-77-7--44-4-4-4--77-77---|
D|---2---4--5555-x-55-55----99-9-9-99---77-7-77-7--44-4-4-4--77-77---|
A|---0---2--3333-x-33-33----77-7-7-77---55-5-55-5--22-2-2-2--55-55---|
E|-------------------------------------------------------------------|

*2nd Part*

e|---------------------------------------|--------------------------------------|
B|---------------------------------------|--------------------------------------|
G|------------555-5-5-----------777--7-7-|-----------555-5-5-----------444/-7-7-|
D|--222-2-2---555-5-5--555-5-5--777--7-7-|-222-2-2---555-5-5--555-5-5--444/-7-7-|
A|--222-2-2---333-3-3--555-5-5--555--5-5-|-222-2-2---333-3-3--555-5-5--222/-5-5-|
E|--000-0-0------------333-3-3-----------|-000-0-0------------333-3-3-----------|

e|-----------------------------------------------------------------------|
B|-----------------------------------------------------------------------|
G|------------555-5-5-----------777-7-7---6-6-6-6--5-5-5-5--4-4/-7-7-----|
D|--222-2-2---555-5-5--555-5-5--777-7-7---7-7-7-7--5-5-5-5--4-4/-7-7-----|
A|--222-2-2---333-3-3--555-5-5--555-5-5---4-4-4-4--3-3-3-3--2-2/-5-5-----|
E|--000-0-0------------333-3-3-------------------------------------------|


___________________
*2nd Pre-verses and Verse*

Rhythm *Guitar 1*

e|---------------------------------------------------------------------------|
B|---------------------------------------------------------------------------|
G|---------------------------5-5-5-5----8-8-8-8------------------------------|
D|--2-2-2-2--2----5-5-5-5----5-5-5-5----8-8-8-8------------------------------|
A|--2-2-2-2--2----5-5-5-5----3-3-3-3----6-6-6-6------------------------------|
E|--0-0-0-0--0----3-3-3-3----------------------------------------------------|

Lead *Guitar 2*

e|---------------------------------------------------|
B|-----------------15---12---13-----12----10----12---|
G|------------14-------------------------------------|
D|---------------------------------------------------|
A|---------------------------------------------------|
E|---------------------------------------------------|

________
2nd Pre-Verse

e|--------------------------|
B|--------------------------|
G|--------------------------|
D|--------------------------|
A|--------------------------|
E|-0----2---3-3---2---0-----|
  (h)  (h) (h)   (p) (p)     x2 then proceed below

e|---0----0--------------0-----------|
B|-0-----0-----0-------0---------0---|
G|------------0-----------------0----|
D|-----------------------------------|
A|-----------------------------------|
E|-0----2---3-3---2----0---2---3-----|
  (h)  (h) (h)   (p)  (p)

________
2nd Verse

*1st Part*

e|-------------------------------------------------------------------|
B|-------------------------------------------------------------------|
G|----------5555-x-55-55----99-9-9-99---77-7-77-7--44-4-4-4--77-77---|
D|---2---4--5555-x-55-55----99-9-9-99---77-7-77-7--44-4-4-4--77-77---|
A|---0---2--3333-x-33-33----77-7-7-77---55-5-55-5--22-2-2-2--55-55---|
E|-------------------------------------------------------------------|

*2nd Part*

e|---------------------------------------|--------------------------------------|
B|---------------------------------------|--------------------------------------|
G|------------555-5-5-----------777--7-7-|-----------555-5-5-----------444/-7-7-|
D|--222-2-2---555-5-5--555-5-5--777--7-7-|-222-2-2---555-5-5--555-5-5--444/-7-7-|
A|--222-2-2---333-3-3--555-5-5--555--5-5-|-222-2-2---333-3-3--555-5-5--222/-5-5-|
E|--000-0-0------------333-3-3-----------|-000-0-0------------333-3-3-----------|

e|------------------------------------------------------------------------|
B|------------------------------------------------------------------------|
G|------------555-5-5-----------777-7-7---6-6-6-6--5-5-5-5--4-4/-7-7------|
D|--222-2-2---555-5-5--555-5-5--777-7-7---7-7-7-7--5-5-5-5--4-4/-7-7------|
A|--222-2-2---333-3-3--555-5-5--555-5-5---4-4-4-4--3-3-3-3--2-2/-5-5------|
E|--000-0-0------------333-3-3--------------------------------------------|


_____________
Interlude/Chorus

1st Part:

e|---0-------0----0----0----|
B|-----0-------0----0----0--|
G|--------------------------|
D|--------------------------|
A|---------5-----4----3-----|
E|--0-----------------------|
	Repeat 5x
e|-----------------------------------------|
B|-----------------------------------------|
G|-55555-55555-555/--99999\--77777-777/----|
D|-55555-55555-555/--99999\--77777-777/----|
A|-33333-33333-333/--77777\--55555-555/----|
E|-----------------------------------------|
	Repeat 3x then proceed to 2nd Part.

2nd Part (Solo):

Rhythm:

e|----------------------------|----------------------------|
B|----------------------------|----------------------------|
G|-6-6-6-6--5-5-5-5--4-4/-7-7--|---------------------------|
D|-7-7-7-7--5-5-5-5--4-4/-7-7--|---------------------------|
A|-4-4-4-4--3-3-3-3--2-2/-5-5--|---------------------------|
E|----------------------------|---200-200-200-200-200------|

Lead:

e|-15/-17/--19\-15\--14/---17\----12/----19-------------|
B|------------------------------------------------------|
G|------------------------------------------------------|
D|------------------------------------------------------|
A|------------------------------------------------------|
E|------------------------------------------------------|

3rd Part:

(Sidenote: Repeat this part just like a normal Verse)

e|----------------------------|----------------------------------|
B|----------------------------|----------------------------------|
G|--------555-----------777---|----------555-----------4/----7---|
D|-222----555----555----777---|---222----555----555----4/----7---|
A|-222----333----555----555---|---222----333----555----2/----5---|
E|-000-----------333----------|---000-----------333--------------|

e|---------------------------------------------------------------------|
B|---------------------------------------------------------------------|
G|------------555-5-5-----------777-7-7---6-6-6-6--5-5-5-5--4-4/-7-7---|
D|--222-2-2---555-5-5--555-5-5--777-7-7---7-7-7-7--5-5-5-5--4-4/-7-7---|
A|--222-2-2---333-3-3--555-5-5--555-5-5---4-4-4-4--3-3-3-3--2-2/-5-5---|
E|--000-0-0------------333-3-3-----------------------------------------|

__________________
3rd Verse

e|---------------------------------------|--------------------------------------|
B|---------------------------------------|--------------------------------------|
G|------------555-5-5-----------777--7-7-|-----------555-5-5-----------444/-7-7-|
D|--222-2-2---555-5-5--555-5-5--777--7-7-|-222-2-2---555-5-5--555-5-5--444/-7-7-|
A|--222-2-2---333-3-3--555-5-5--555--5-5-|-222-2-2---333-3-3--555-5-5--222/-5-5-|
E|--000-0-0------------333-3-3-----------|-000-0-0------------333-3-3-----------|

e|--------------------------------------|
B|--------------------------------------|
G|------------555-5-5-----------777-7-7-|
D|--222-2-2---555-5-5--555-5-5--777-7-7-|
A|--222-2-2---333-3-3--555-5-5--555-5-5-|
E|--000-0-0------------333-3-3----------|


e|--------------------------------------------------------------|
B|--------------------------------------------------------------|
G|---6-6-6-6--5-5-5-5--4-4/-7-7\----6-6-6-6--5-5-5-5--4-4/-7-7--|
D|---7-7-7-7--5-5-5-5--4-4/-7-7\----7-7-7-7--5-5-5-5--4-4/-7-7--|
A|---4-4-4-4--3-3-3-3--2-2/-5-5\----4-4-4-4--3-3-3-3--2-2/-5-5--|
E|--------------------------------------------------------------|


(Sidenote: Then do 2nd Half of Intro)

Rhythm *Guitar 1*

e|---------------------------------------------------------------------------|
B|---------------------------------------------------------------------------|
G|---------------------------5-5-5-5----8-8-8-8------------------------------|
D|--2-2-2-2--2----5-5-5-5----5-5-5-5----8-8-8-8------------------------------|
A|--2-2-2-2--2----5-5-5-5----3-3-3-3----6-6-6-6------------------------------|
E|--0-0-0-0--0----3-3-3-3----------------------------------------------------|

Lead *Guitar 2*

e|---------------------------------------------------|
B|-----------------15---12---13-----12----10----12~--|
G|------------14-------------------------------------|
D|---------------------------------------------------|
A|---------------------------------------------------|
E|---------------------------------------------------|

| /  slide up
| \  slide down
| h  hammer-on
| p  pull-off
| ~  vibrato
| +  harmonic
| x  Mute note
===============================================================================
            
Submit corrections

↑ Back to top | Tablatures and chords for acoustic guitar and electric guitar, ukulele, drums are parodies/interpretations of the original songs. You may use it for private study, scholarship, research or language learning purposes only