» » »

The Bravery - Tragedy Bound Tabs

Artists:  A B C D E F G H I J K L M N O P Q R S T U V W X Y Z # 

Tragedy Bound Tabs

(ver. 1) Click to play this song!
The Bravery
 Rating:
4/5 (4 votes)

 Tragedy Bound lessons Tabs too difficult? Try these video lessons and learn fast
 
                
Tuning: Standard

Hi everyone!  This is my first tab, and I wanted to make it as accurate as possible.
I wrote this tab completely by ear, and listened to it for over an hour and it sounds 
to me
(Hopefully my awesome Music Theory teacher will think it sounds good, too!).

I've seen a few tabs for this song, but this a very accurate, full-length tab. Here are 
simple chords, but look at the tab for accurate stroke patterns and notes.

Verse:  {F#m  E  E   F#m
         F#m  E  Bm  F#m} x2 each verse

Chorus:   {A  E  E   F#m
           A  E  Bm  F#m} x2 each chorus


Intro

       F#m
e|------2---2---2------------------------------------------------------------|
B|--2---2---2---2------------------------------------------------------------|
G|--2---2---2---2------------------------------------------------------------|
D|--4---4---4---4------------------------------------------------------------|
A|--4-4-4-4-4---4------------------------------------------------------------|
E|2-2-2-2---2-2-2-0h2--------------------------------------------------------|


Verse

 F#m        E       E        F#m
e|2---2---------0---0---0-----2---2------------------------------------------|
B|2---2-----0---0---0---0-----2---2------------------------------------------|
G|2---2-----1---1---1---1-----2---2------------------------------------------|
D|4---4--h2-2---2---2---2-----4---4------------------------------------------|
A|4-4-4-0h2-2---2-2-2---2-----4-4-4------------------------------------------|
E|2-2-2-0---0-0-0---0-0-0-0h2-2-2-2------------------------------------------|

     F#m       E       Bm       F#m
e|----2---2----0---0----2---2----2---2---------------------------------------|
B|----2---2----0---0----3---3----2---2---------------------------------------|
G|----2---2----1---1----4---4----2---2---------------------------------------|
D|----4---4----2---2----4-4-4----4---4---------------------------------------|
A|----4---4-2--2---2--2-2-2-2-2--4-4-4---------------------------------------|
E|0h2-2-2-2--0-0-0-0-0---------2-2---2---------------------------------------|

     F#m        E       E        F#m
e|----2---2---------0---0---0-----2---2--------------------------------------|
B|----2---2-----0---0---0---0-----2---2--------------------------------------|
G|----2---2-----1---1---1---1-----2---2--------------------------------------|
D|----4---4--h2-2---2---2---2-----4---4--------------------------------------|
A|----4-4-4-0h2-2---2-2-2---2-----4-4-4--------------------------------------|
E|0h2-2-2-2-0---0-0-0---0-0-0-0h2-2-2-2--------------------------------------|

     F#m       E       Bm       F#m
e|----2---2----0---0----2---2----2---2---------------------------------------|
B|----2---2----0---0----3---3----2---2---------------------------------------|
G|----2---2----1---1----4---4----2---2---------------------------------------|
D|----4---4----2---2----4-4-4----4---4---------------------------------------|
A|----4---4-2--2---2--2-2---2-2--4-4-4---------------------------------------|
E|0h2-2-2-2--0-0-0-0-0---------2-2---2---------------------------------------|

Chorus

     A        E       E        F#m
e|-0-0---0----0---0---0---0-----2---2----------------------------------------|
B|-2-2---2----0---0---0---0-----2---2----------------------------------------|
G|-2-2---2----1---1---1---1-----2---2----------------------------------------|
D|-2-2---2----2---2---2---2-----4---4----------------------------------------|
A|0--0-0-0-0--2---2-2-2---2-----4-4-4----------------------------------------|
E|----------0-0-0-0---0-0-0-0h2-2---2----------------------------------------|

     A        E        Bm       F#m
e|-0-0---0----0---0---2-2---2----2---2---2---2-------------------------------|
B|-2-2---2----0---0---3-3---3----2---2---2---2-------------------------------|
G|-2-2---2----1---1---4-4---4----2---2---2---2-------------------------------|
D|-2-2---2----2---2---4-4-4-4----4---4---4---4-------------------------------|
A|0--0-0-0-0--2---2-2-2-2---2----4-4-4---4-4-4-------------------------------|
E|----------0-0-0-0----------0h2-2---2-2-2---2-------------------------------|

Repeat Verse

Repeat Chorus


Bridge

e|---------------------------------------------------------------------------|
B|-------2-------------2-------------1------------2---0----------------------|
G|----------2-------------1-------------2--------------2---------------------|
D|--------------------------------2------------------------------------------|
A|----4------------4-----------0---------------4-----------------------------|
E|0h2------------0---------------------------2-------------------------------|


e|---------------------------------------------------------------------------|
B|------2-------------2-------------1------------2---0-----------------------|
G|---------2-------------1-------------2--------------2----------------------|
D|-------------------------------2------------------------4------------------|
A|---4------------4-----------0---------------4------------------------------|
E|2------------0---------------------------2---------------------------------|


 F#m        E       E        F#m                           *   *
e|2---2---------0---0---0-----2---2---2---2----------------2-2-2-------------|
B|2---2-----0---0---0---0-----2---2---2---2----------------2-2-2-------------|
G|2---2-----1---1---1---1-----2---2---2---2----------------2-2-2-------------|
D|4---4--h2-2---2---2---2-----4---4---4---4----------------4-4-4-------------|
A|4-4-4-0h2-2---2-2-2---2-----4-4-4---4---4------------------4---------------|
E|2-2-2-0---0-0-0---0-0-0-0h2-2-2-2-2-2-2-2------------------2---------------|


Final Chorus

     A        E       E        F#m
e|-0-0---0----0---0---0---0-----2---2----------------------------------------|
B|-2-2---2----0---0---0---0-----2---2----------------------------------------|
G|-2-2---2----1---1---1---1-----2---2----------------------------------------|
D|-2-2---2----2---2---2---2-----4---4----------------------------------------|
A|0--0-0-0-0--2---2-2-2---2-----4-4-4----------------------------------------|
E|----------0-0-0-0---0-0-0-0h2-2---2----------------------------------------|

     A        E        Bm       F#m
e|-0-0---0----0---0---2-2---2----2---2---------------------------------------|
B|-2-2---2----0---0---3-3---3----2---2---------------------------------------|
G|-2-2---2----1---1---4-4---4----2---2---------------------------------------|
D|-2-2---2----2---2---4-4-4-4----4---4---------------------------------------|
A|0--0-0-0-0--2---2-2-2-2---2----4-4-4---------------------------------------|
E|----------0-0-0-0----------0h2-2---2---------------------------------------|

     A        E       E        F#m
e|-0-0---0----0---0---0---0-----2---2----------------------------------------|
B|-2-2---2----0---0---0---0-----2---2----------------------------------------|
G|-2-2---2----1---1---1---1-----2---2----------------------------------------|
D|-2-2---2----2---2---2---2-----4---4----------------------------------------|
A|0--0-0-0-0--2---2-2-2---2-----4-4-4----------------------------------------|
E|----------0-0-0-0---0-0-0-0h2-2---2----------------------------------------|

     A        E        Bm       F#m
e|-0-0---0----0---0---2-2-2-2----2~------------------------------------------|
B|-2-2---2----0---0---3-3-3-3----2~------------------------------------------|
G|-2-2---2----1---1---4-4-4-4----2~------------------------------------------|
D|-2-2---2----2---2---4-4-4-4----4~------------------------------------------|
A|0--0-0-0-0--2---2-2-2-2-2-2----4~------------------------------------------|
E|----------0-0-0-0------------0h2~------------------------------------------|

| /  slide up
| \  slide down
| h  hammer-on
| p  pull-off
| ~  light vibrato
| *  upstroke strum

Please rate and comment!
Thanks!
            
Submit corrections


        Tragedy Bound lessons Hard to play? Try these video lessons and learn fast Tragedy Bound lessons
        
↑ Back to top | Tablatures and chords for acoustic guitar and electric guitar, ukulele, drums are parodies/interpretations of the original songs. You may use it for private study, scholarship, research or language learning purposes only