» » »

The Bravery - Honest Mistake Tabs

Artists:  A B C D E F G H I J K L M N O P Q R S T U V W X Y Z # 

Honest Mistake Tabs

(ver. 3) Click to play this song!
The Bravery
 Rating:
4/5 (4 votes)

 Honest Mistake lessons Tabs too difficult? Try these video lessons and learn fast
 
                
                              Honest Mistake

   I had problems with the solo, I didn't get it but I have the hole song

Intro
e|------------------------------19/20-20-20-18-18-17-17-------------------|
b|-----------------------------------------------------18-18-18-18-18-18--|
g|-14-------17------------------------------------------------------------|
d|---------------14-15--17-14---------------------------------------------|
a|------------------------------------------------------------------------|
E|------------------------------------------------------------------------|

e|------------20-20-20-18-18-17-17-17------------------------|
b|-18-18-18-18-----------------------18-20------18-----------|
g|----------------------------------------19--17-----19------|
d|-------------------------------------------------17--------|
a|--------------------------------------------------------15-|
E|-----------------------------------------------------------|

Verse 1                                    Pre-chorus
e|-17--------------------------------------|-5555-3-5-3-5555-3-5-3---------|
b|-----------------------------------------|-6666-------6666-------10101010|
g|---------------------------------14------|-7777-------7777-------10101010|
d|--------------15-14-12-------------------|-7777-------7777-------10101010|
a|-----------------------------------------|-5555-------5555-------8-8-8-8-|
E|-----------------------------------------|-------------------------------|

e|-3333-33-5555-3-5-3-5555-3-5-3-------------|
b|-3333-33-6666-------6666-------------------|
g|-4444-44-7777-------7777-------10-10-10-10-|
d|-5555-55-7777-------7777-------------------|
a|-5555-55-5555-------5555-------------------|
E|-3333-33-----------------------------------|

Chorus 1
e|------------------------------------------------------------|
b|-1010101010101010111111111111111166666666121212121210101010-|
g|-1010101010101010101010101010101055555555121212121210101010-|
d|-----------------------------------------121212121210101010-|
a|-----------------------------------------10101010108-8-8-8--|
E|------------------------------------------------------------|

e|--------------------------------------------------------------------|
b|-1010101010101010111111111111111166666666666666668888888888888888-18|
g|-1010101010101010101010101010101055555555555555557777777777777777---|
d|--------------------------------------------------------------------|
a|--------------------------------------------------------------------|
E|--------------------------------------------------------------------|

Verse 2
e|-------------------------------20-|
b|---18------------------18----20---|
g|-17------------------17---17------|
d|-----19-17------------------------|
a|----------------------------------|
E|----------------------------------|

Play the Pre-chorus and the Chorus 

Breakdown
e|--------------------------------------|
b|--------------------------------------|
g|-7----10----------12----7----10-------|
d|-7----10----10----12----7----10----10-|
a|-5----8-----10----10----5----8-----10-|
E|------------8----------------------8--|
            
Submit corrections


        Honest Mistake lessons Hard to play? Try these video lessons and learn fast Honest Mistake lessons
        
↑ Back to top | Tablatures and chords for acoustic guitar and electric guitar, ukulele, drums are parodies/interpretations of the original songs. You may use it for private study, scholarship, research or language learning purposes only