» » »

The Bravery - Above And Below Tabs

Artists:  A B C D E F G H I J K L M N O P Q R S T U V W X Y Z # 

Above And Below Tabs

(ver. 2) Click to play this song!
The Bravery
 Rating:
4/5 (4 votes)

 Above And Below lessons Tabs too difficult? Try these video lessons and learn fast
 
                It's easier if you seperate it into 4 parts. and the notes go along with the singing so 
can figure out the rhythm by listening to the chorus, I'm 100% so enjoy :)
p.s. he picks each not quite rapidly, but its hard to notice so if u hit each note just 
it won't make a difference.

E|--------------------------------------------|
B|--------------------------------------------|
G|--------------------------------------------|
D|7---10--14-12---12--10--12--10--12-14--12---|
A|--------------------------------------------|
E|--------------------------------------------|
  if this is it - all we have and ev-er will

E|-----------------------------------------------------|
B|-----------------------------------------------------|
G|-----------------------------------------------------|
D|7---10--14-12--12--10--12--10--12---10--12---14---12-|
A|-----------------------------------------------------|
E|-----------------------------------------------------|
  if this is it time is run-ning out and stan-ding still

E|----------------------------------------------------------------|
B|----------------------------------------------------------------|
G|14----14--------------------------------------------------------|
D|-----------12---7----7-----10-----12---12---12--10--12--14--12--|
A|----------------------------------------------------------------|
E|----------------------------------------------------------------|
  I'll leave to--day cause there's not--hing left to keep me hear

E|-------------------------------------------------------|
B|-------------------------------------------------------|
G|14----14-----------------------------------------------|
D|----------12---7--10---12--12--12--10--12--10----------|
A|-------------------------------------------------------|
E|-------------------------------------------------------|
  I'll fade aw--ay I'll turn my back and dis--a----------|ppear
            
Submit corrections


        Above And Below lessons Hard to play? Try these video lessons and learn fast Above And Below lessons
        
↑ Back to top | Tablatures and chords for acoustic guitar and electric guitar, ukulele, drums are parodies/interpretations of the original songs. You may use it for private study, scholarship, research or language learning purposes only