Home » T » The Boxer Rebellion »

The Boxer Rebellion - These Walls Are Thin Tabs

Artists:  A B C D E F G H I J K L M N O P Q R S T U V W X Y Z # 

These Walls Are Thin Tabs

(ver. 1) Click to play this song!
The Boxer Rebellion
These Walls are Thin: by The Boxer Rebellion


Tuning: Standard

This is not the complete part
i'm not giving the chords this is the lead non-chord part

Verse:  play this till  0:30
----------------------------------|
----------------------------------|
---5---5----543----5---5----------|
-3---3---3-------3---3---3--5-55--|
----------------------------------|
----------------------------------|

0:30   =   bridge

bridge: x1
--------------------------|
--------------------------|
------5----5----5---------|
---3----3----3----3-------|
--------------------------|
--------------------------|

pre-chorus: x1  treble picked
-----------------------|
-----------------------|
--3----5-------3-------|
---------3-------------|
-----------------------|
-----------------------|

bridge x1

chorus:  treble picked
--------------------------|
--------------------------|
-5--------6-8---3--5------|    play till 1:07
--------------------------|
--------------------------|
--------------------------|

verse: till 1:30

1:30 = bridge

bridge: x1

pre-chorus x1

bridge x1

chorus till 2:08

outro is verse played twice
            
Submit corrections

↑ Back to top | Tablatures and chords for acoustic guitar and electric guitar, ukulele, drums are parodies/interpretations of the original songs. You may use it for private study, scholarship, research or language learning purposes only