» » »

The Bosshoss - Little Help Bass

Artists:  A B C D E F G H I J K L M N O P Q R S T U V W X Y Z # 

Little Help Bass

(ver. 1) Click to play this song!
The Bosshoss
 Rating:
4.3/5 (25 votes)

 Little Help lessons Tabs too difficult? Try these video lessons and learn fast
 
                [Intro]

G|---------------------------------------------------------------------------|
D|---------------------------------------------------------------------------|
A|---------------------------------------------------------------------------|
E|-5--5-5----5--5-5-3--------------------------------------------------------|


[Verse 1]

G|---------------------------------------------------------------------------------------------------|
D|---------------------------------------------------------------------------------------------------|
A|-------------------------------------------3--3-3----3--3-3--5---------------5p3h5p3---------------|
E|-5--5-5----5--5-5--3--1--1-1----1--1-1--3-----------------------0--0-0----0-----------5--3--5------|

G|---------------------------------------------------------------------------|
D|---------------------------------------------------------------------------|
A|-------------------------------------------3--3-3----3--3-3--5-------------|
E|-5--5-5----5--5-5--3--1--1-1----1--1-1--3-----------------------0--0-0----0|


[Chorus]

G|---------------------------------------------------------------------------|
D|---------------------------------------------------------------------------|
A|---------------------------------------------------------------------------| x3
E|-1--1-1-1---3--3-3-3---0--0-0-3---5--5-5--3--------------------------------|


G|---------------------------------------------------------------------------|
D|---------------------------------------------------------------------------|
A|---------------------------------------------------------------------------|
E|-1--1-1-1---3--3-3-3---0--0-0-0---0--0-0-0---5--5-5-5---0--0-0-0-----------|


[Verse 2]

G|--------------------------------------------------------------------------------------------|
D|--------------------------------------------------------------------------------------------|
A|-------------------------------------------3--3-3----3--3-3--5---------------5p3h5p3--------|
E|-5--5-5----5--5-5--3--1--1-1----1--1-1--3-----------------------0--0-0----0----------5-3-5--|

G|------------------------------------------------------------------------------------|
D|------------------------------------------------------------------------------------|
A|-------------------------------------------3--3-3----3--3-3--5----------------------|
E|-5--5-5----5--5-5--3--1--1-1----1--1-1--3-----------------------0--0-0----0---------|


[Chorus]

G|---------------------------------------------------------------------------|
D|---------------------------------------------------------------------------|
A|---------------------------------------------------------------------------| x3
E|-1--1-1-1---3--3-3-3---0--0-0-3---5--5-5-5---3-----------------------------|

G|--------------------------------|  
D|--------------------------------|
A|--------------------------------|
E|-1--1-1-1---3--3-3-3---5--5-5-5-|


[Bridge]

G|----------------------|
D|----------------------|
A|----------------------| x7
E|-0--0-0-0---5---5-5-5-|


[Verse 3]

G|---------------------------------------------------------------------------|
D|---------------------------------------------------------------------------|
A|-------------------3-------------------------------------------------------|
E|-5--------1-----------------0----------------------------------------------|

G|---------------------------------------------------------------------------|
D|---------------------------------------------------------------------------|
A|-------------------------------------------3--3-3----3--3-3--5------- -----|
E|-5--5-5----5--5-5--3--1--1-1----1--1-1--3-----------------------0--0-0----0|


[Chorus]

G|---------------------------------------------------------------------------|
D|---------------------------------------------------------------------------|
A|---------------------------------------------------------------------------| x3
E|-1--1-1-1---3--3-3-3---0--0-0-3---5--5-5-5---3-----------------------------|


G|--------------------------------|  
D|--------------------------------|
A|--------------------------------|
E|-1--1-1-1---3--3-3-3---5--5-5-5-|


[Outro]

G|---------------------|
D|---------------------|
A|---------------------| fade out
E|-0--0-0-0---5--5-5-5-|


            
Submit corrections


        Little Help lessons Hard to play? Try these video lessons and learn fast Little Help lessons
        
↑ Back to top | Tablatures and chords for acoustic guitar and electric guitar, ukulele, drums are parodies/interpretations of the original songs. You may use it for private study, scholarship, research or language learning purposes only