» » »

The Black Box Revelation - Tattooed Smiles Tabs

Artists:  A B C D E F G H I J K L M N O P Q R S T U V W X Y Z # 

Tattooed Smiles Tabs

(ver. 1) Click to play this song!
The Black Box Revelation
 Rating:
4.3/5 (19 votes)

 Tattooed Smiles lessons Tabs too difficult? Try these video lessons and learn fast
 
                [Intro]

E|-------|----------------------------|
B|-------|----------------------------|
G|-------|----------------------------|
D|-------|----------------------------|
A|-------|----------------------------|
E|-------|-----------------8--8--8----|

E|----------------------------|----------------------------|
B|----------------------------|----------------------------|
G|----------------------------|----------------------------|
D|----------------------------|----------------------------|
A|----------------------------|----------------------------|
E|--8--6--6--6--6--6--6--6----|--6--5--5--5--5--0--1--2----|

E|----------------------------|----------------------------|
B|----------------------------|----------------------------|
G|----------------------------|----------------------------|
D|----------------------------|----------------------------|
A|----------------------------|----------------------------|
E|--3--3--3--3--3--3--3--3----|--3--3--3--3--3--8--8--8----|

E|----------------------------|----------------------------|
B|----------------------------|----------------------------|
G|----------------------------|----------------------------|
D|----------------------------|----------------------------|
A|----------------------------|----------------------------|
E|--8--6--6--6--6--6--6--6----|--6--5--5--5--5--0--1--2----|

E|----------------------------|----------------------------|
B|----------------------------|----------------------------|
G|----------------------------|----------------------------|
D|----------------------------|----------------------------|
A|----------------------------|----------------------------|
E|--3--3--3--3--3--3--3--3----|--3--3--3--3--3--8--8--8----|

[Verse 1]

E|----------------------------|----------------------------|
B|----------------------------|----------------------------|
G|----------------------------|----------------------------|
D|----------------------------|----------------------------|
A|----------------------------|----------------------------|
E|--8--6--6--6--6--6--6--6----|--6--5--5--5--5--0--1--2----|

E|----------------------------|----------------------------|
B|----------------------------|----------------------------|
G|----------------------------|----------------------------|
D|----------------------------|----------------------------|
A|----------------------------|----------------------------|
E|--3--3--3--3--3--3--3--3----|--3--3--3--3--3--8--8--8----|

E|----------------------------|----------------------------|
B|----------------------------|----------------------------|
G|----------------------------|----------------------------|
D|----------------------------|----------------------------|
A|----------------------------|----------------------------|
E|--8--6--6--6--6--6--6--6----|--6--5--5--5--5--0--1--2----|

E|----------------------------|----------------------------|
B|----------------------------|----------------------------|
G|----------------------------|----------------------------|
D|----------------------------|----------------------------|
A|----------------------------|----------------------------|
E|--3--3--3--3--3--3--3--3----|--3--3--3--3--3--8--8--8----|

E|----------------------------|----------------------------|
B|----------------------------|----------------------------|
G|----------------------------|----------------------------|
D|----------------------------|----------------------------|
A|----------------------------|----------------------------|
E|--8--6--6--6--6--6--6--6----|--6--5--5--5--5--0--1--2----|

E|----------------------------|----------------------------|
B|----------------------------|----------------------------|
G|----------------------------|----------------------------|
D|----------------------------|----------------------------|
A|----------------------------|----------------------------|
E|--3--3--3--3--3--3--3--3----|--3--3--3--3--3--8--8--8----|

E|----------------------------|----------------------------|
B|----------------------------|----------------------------|
G|----------------------------|----------------------------|
D|----------------------------|----------------------------|
A|----------------------------|----------------------------|
E|--8--6--6--6--6--6--6--6----|--6--5--5--5--5--0--1--2----|

E|----------------------------|----------------------------|
B|----------------------------|----------------------------|
G|----------------------------|----------------------------|
D|----------------------------|-----------------2--3--4----|
A|----------------------------|-----------------2--3--4----|
E|--3--3--3--3--3--3--3--3----|--3--3--3--3--3--0--1--2----|

[Chorus 1]

E|----------------------------|----------------------------|
B|----------------------------|----------------------------|
G|--------------5--5--5--5----|----------------------------|
D|--5--5--5--5--5--5--5--5----|--3--3--3--3--5--5--5--5----|
A|--5--5--5--5--3--3--3--3----|--3--3--3--3--5--5--5--5----|
E|--3--3--3--3----------------|--1--1--1--1--3--3--3--3----|

E|----------------------------|----------------------------|
B|----------------------------|----------------------------|
G|--------------5--5--5--5----|----------------------------|
D|--5--5--5--5--5--5--5--5----|--3--3--3--3--3--3--3--3----|
A|--5--5--5--5--3--3--3--3----|--3--3--3--3--3--3--3--3----|
E|--3--3--3--3----------------|--1--1--1--1--1--1--1--1----|

E|----------------------------|----------------------------|
B|----------------------------|----------------------------|
G|--------------5--5--5--5----|----------------------------|
D|--5--5--5--5--5--5--5--5----|--3--3--3--3--5--5--5--5----|
A|--5--5--5--5--3--3--3--3----|--3--3--3--3--5--5--5--5----|
E|--3--3--3--3----------------|--1--1--1--1--3--3--3--3----|

E|----------------------------|----------------------------|
B|----------------------------|----------------------------|
G|--------------5--5--5--5----|----------------------------|
D|--5--5--5--5--5--5--5--5----|--3--3--3--3--3--3--3--3----|
A|--5--5--5--5--3--3--3--3----|--3--3--3--3--3--3--3--3----|
E|--3--3--3--3----------------|--1--1--1--1--1--1--1--1----|

[Bridge]

E|----------------------------|
B|----------------------------|
G|----------------------------|
D|--3--x--3--x--3-------------|
A|--3--x--3--x--3-------------|
E|--1--x--1--x--1--0--1--2----|

E|----------------------------|----------------------------|
B|----------------------------|----------------------------|
G|--4--4--4--4--4--4--4--4----|--4--4--4--4--4-------------|
D|--5--5--5--5--5--5--5--5----|--5--5--5--5--5-------------|
A|--5--5--5--5--5--5--5--5----|--5--5--5--5--5--3--3--3----|
E|--3--3--3--3--3--3--3--3----|--3--3--3--3--3-------------|

[Verse 2]

E|----------------------------|----------------------------|
B|----------------------------|----------------------------|
G|----------------------------|----------------------------|
D|----------------------------|----------------------------|
A|--3-------------------------|----------------------------|
E|-----6--6--6--6--6--6--6----|--6--5--5--5--5--0--1--2----|

E|----------------------------|----------------------------|
B|----------------------------|----------------------------|
G|----------------------------|----------------------------|
D|----------------------------|----------------------------|
A|----------------------------|----------------------------|
E|--3--3--3--3--3--3--3--3----|--3--3--3--3--3--8--8--8----|

E|----------------------------|----------------------------|
B|----------------------------|----------------------------|
G|----------------------------|----------------------------|
D|----------------------------|----------------------------|
A|----------------------------|----------------------------|
E|--8--6--6--6--6--6--6--6----|--6--5--5--5--5--0--1--2----|

E|----------------------------|----------------------------|
B|----------------------------|----------------------------|
G|----------------------------|----------------------------|
D|----------------------------|----------------------------|
A|----------------------------|----------------------------|
E|--3--3--3--3--3--3--3--3----|--3--3--3--3--3--8--8--8----|

E|----------------------------|----------------------------|
B|----------------------------|----------------------------|
G|----------------------------|----------------------------|
D|----------------------------|----------------------------|
A|----------------------------|----------------------------|
E|--8--6--6--6--6--6--6--6----|--6--5--5--5--5--0--1--2----|

E|----------------------------|----------------------------|
B|----------------------------|----------------------------|
G|----------------------------|----------------------------|
D|----------------------------|----------------------------|
A|----------------------------|----------------------------|
E|--3--3--3--3--3--3--3--3----|--3--3--3--3--3--8--8--8----|

E|----------------------------|----------------------------|
B|----------------------------|----------------------------|
G|----------------------------|----------------------------|
D|----------------------------|----------------------------|
A|----------------------------|----------------------------|
E|--8--6--6--6--6--6--6--6----|--6--5--5--5--5--0--1--2----|

E|----------------------------|----------------------------|
B|----------------------------|----------------------------|
G|----------------------------|----------------------------|
D|----------------------------|-----------------2--3--4----|
A|----------------------------|-----------------2--3--4----|
E|--3--3--3--3--3--3--3--3----|--3--3--3--3--3--0--1--2----|

[Chorus 2]

E|----------------------------|----------------------------|
B|----------------------------|----------------------------|
G|--------------5--5--5--5----|----------------------------|
D|--5--5--5--5--5--5--5--5----|--3--3--3--3--5--5--5--5----|
A|--5--5--5--5--3--3--3--3----|--3--3--3--3--5--5--5--5----|
E|--3--3--3--3----------------|--1--1--1--1--3--3--3--3----|

E|----------------------------|----------------------------|
B|----------------------------|----------------------------|
G|--------------5--5--5--5----|----------------------------|
D|--5--5--5--5--5--5--5--5----|--3--3--3--3--3--3--3--3----|
A|--5--5--5--5--3--3--3--3----|--3--3--3--3--3--3--3--3----|
E|--3--3--3--3----------------|--1--1--1--1--1--1--1--1----|

E|----------------------------|----------------------------|
B|----------------------------|----------------------------|
G|--------------5--5--5--5----|----------------------------|
D|--5--5--5--5--5--5--5--5----|--3--3--3--3--5--5--5--5----|
A|--5--5--5--5--3--3--3--3----|--3--3--3--3--5--5--5--5----|
E|--3--3--3--3----------------|--1--1--1--1--3--3--3--3----|

E|----------------------------|----------------------------|
B|----------------------------|----------------------------|
G|--------------5--5--5--5----|----------------------------|
D|--5--5--5--5--5--5--5--5----|--3--3--3--3--3--3--3--3----|
A|--5--5--5--5--3--3--3--3----|--3--3--3--3--3--3--3--3----|
E|--3--3--3--3----------------|--1--1--1--1--1--1--1--1----|

[Outro]

E|----------------------------|----------------||
B|----------------------------|----------------||
G|----------------------------|----------------||
D|--3--x--3--x--3-------------|--5-------------||
A|--3--x--3--x--3-------------|--5-------------||
E|--1--x--1--x--1--0--1--2----|--3s------------||

            
Submit corrections


        Tattooed Smiles lessons Hard to play? Try these video lessons and learn fast Tattooed Smiles lessons
        
↑ Back to top | Tablatures and chords for acoustic guitar and electric guitar, ukulele, drums are parodies/interpretations of the original songs. You may use it for private study, scholarship, research or language learning purposes only