Home » T » The Black Box Revelation »

The Black Box Revelation - Stop Breathing Tabs

Artists:  A B C D E F G H I J K L M N O P Q R S T U V W X Y Z # 

Stop Breathing Tabs

(ver. 1) Click to play this song!
The Black Box Revelation
[Intro]

D#|----------------------------|----------------------------|
A#|-----------5----------------|----------------------------|
F#|--6-----------------6-------|-----------4----------------|
C#|----------------------------|--6-----------------6-------|
G#|--4-----4-----4-----4-------|----------------------------|
D#|----------------------------|--4-----4-----4-----4-------|

D#|----------------------------|----------------------------|
A#|----------------------------|----------------------------|
F#|----------------------------|----------------------------|
C#|--4--------2--------1-------|----------------------------|
G#|----------------------------|--4-----4-----4-----4-------|
D#|--2-----2-----2-----2-------|----------------------------|

[Verse 1]

D#|----------------------------|----------------------------|
A#|-----------5----------------|----------------------------|
F#|--6-----------------6-------|-----------4----------------|
C#|----------------------------|--6-----------------6-------|
G#|--4-----4-----4-----4-------|----------------------------|
D#|----------------------------|--4-----4-----4-----4-------|

D#|----------------------------|----------------------------|
A#|----------------------------|--5--------4----------------|
F#|----------------------------|--------------------6-------|
C#|--4--------2--------1-------|----------------------------|
G#|----------------------------|--4-----4-----4-----4-------|
D#|--2-----2-----2-----2-------|----------------------------|

D#|----------------------------|----------------------------|
A#|-----------5----------------|----------------------------|
F#|--6-----------------6-------|-----------4----------------|
C#|----------------------------|--6-----------------6-------|
G#|--4-----4-----4-----4-------|----------------------------|
D#|----------------------------|--4-----4-----4-----4-------|

D#|----------------------------|----------------------------|
A#|----------------------------|--5--------4----------------|
F#|----------------------------|--------------------6-------|
C#|--4--------2--------1-------|----------------------------|
G#|----------------------------|--4-----4-----4-----4-------|
D#|--2-----2-----2-----2-------|----------------------------|

D#|----------------------------|----------------------------|
A#|-----------5----------------|----------------------------|
F#|--6-----------------6-------|-----------4----------------|
C#|----------------------------|--6-----------------6-------|
G#|--4-----4-----4-----4-------|----------------------------|
D#|----------------------------|--4-----4-----4-----4-------|

D#|----------------------------|----------------------------|
A#|----------------------------|----------------------------|
F#|----------------------------|----------------------------|
C#|--4--------2--------1-------|----------------------------|
G#|----------------------------|--4-----4-----4-----4-------|
D#|--2-----2-----2-----2-------|----------------------------|

D#|----------------------------|----------------------------|
A#|-----------5----------------|----------------------------|
F#|--6-----------------6-------|-----------4----------------|
C#|----------------------------|--6-----------------6-------|
G#|--4-----4-----4-----4-------|----------------------------|
D#|----------------------------|--4-----4-----4-----4-------|

D#|----------------------------|----------------------------|
A#|----------------------------|----------------------------|
F#|----------------------------|----------------------------|
C#|--4--------2--------1-------|----------------------------|
G#|----------------------------|--4-----4-----4-----4-------|
D#|--2-----2-----2-----2-------|----------------------------|

[Chorus 1]
                          |--tied-|
D#|-----------9-----------9L---|--9--------9----------------|
A#|-----------10----------10L--|--10-------10----------10---|
F#|-----------11----------11L--|--11-------11---------------|
C#|----------------------------|----------------------------|
G#|--9-------------------------|----------------------------|
D#|----------------------------|----------------------------|

                          |--tied-|
D#|-----------4-----------4L---|--4--------4-----4-----4----|
A#|-----------5-----------5L---|--5--------5-----5-----5----|
F#|-----------6-----------6L---|--6--------6-----6-----6----|
C#|----------------------------|----------------------------|
G#|--4-------------------------|--------------------4-------|
D#|----------------------------|----------------------------|

                          |--tied-|
D#|-----------9-----------9L---|--9-----12-9-----------9----|
A#|-----------10----------10L--|--10----10-10----------10---|
F#|-----------11----------11L--|--11----11-11----------11---|
C#|----------------------------|----------------------------|
G#|--9-------------------------|----------------------------|
D#|----------------------------|----------------------------|

                          |--tied-|
D#|-----------4-----------4L---|--4--------4-----4-----4----|
A#|-----------5-----------5L---|--5--------5-----5-----5----|
F#|-----------6-----------6L---|--6--------6-----6-----6----|
C#|----------------------------|----------------------------|
G#|--4-------------------------|--------------------4-------|
D#|----------------------------|----------------------------|

D#|-----------9----------------|--9--9--------12-11---------|
A#|-----------10---------------|--10-12-------10-10---------|
F#|-----------11---------------|--11-11-------11-11---------|
C#|----------------------------|----------------------------|
G#|--9-------------------------|----------------------------|
D#|----------------------------|----------------------------|

                          |--tied-|
D#|-----------4-----------4L---|--4--------4-----4-----4----|
A#|-----------5-----------5L---|--5--------5-----5-----5----|
F#|-----------6-----------6L---|--6--------6-----6-----6----|
C#|----------------------------|----------------------------|
G#|--4-------------------------|--------------------4-------|
D#|----------------------------|----------------------------|

                          |--tied-|
D#|-----------4-----------4L---|--4--------4-----------4----|
A#|-----------4-----------4L---|--4--------4-----------4----|
F#|-----------4-----------4L---|--4--------4-----------4----|
C#|-----------6-----------6L---|--6--------6-----------6----|
G#|-----------6-----------6L---|--6--------6-----------6----|
D#|--4L-------4----------------|----------------------------|

D#|----------------------------|----------------------------|
A#|----------------------------|----------------------------|
F#|----------------------------|----------------------------|
C#|--4----------------6--------|----------------------------|
G#|----------------------------|--7-----------6-------------|
D#|----------------------------|----------------------------|

[Verse 2]

D#|----------------------------|----------------------------|
A#|-----------5----------------|----------------------------|
F#|--6-----------------6-------|-----------4----------------|
C#|----------------------------|--6-----------------6-------|
G#|--4-----4-----4-----4-------|----------------------------|
D#|----------------------------|--4-----4-----4-----4-------|

D#|----------------------------|----------------------------|
A#|----------------------------|--5--------4----------------|
F#|----------------------------|--------------------6-------|
C#|--4--------2--------1-------|----------------------------|
G#|----------------------------|--4-----4-----4-----4-------|
D#|--2-----2-----2-----2-------|----------------------------|

D#|----------------------------|----------------------------|
A#|-----------5----------------|----------------------------|
F#|--6-----------------6-------|-----------4----------------|
C#|----------------------------|--6-----------------6-------|
G#|--4-----4-----4-----4-------|----------------------------|
D#|----------------------------|--4-----4-----4-----4-------|

D#|----------------------------|----------------------------|
A#|----------------------------|----------------------------|
F#|----------------------------|----------------------------|
C#|--4--------2--------1-------|----------------------------|
G#|----------------------------|--4-----4-----4-----4-------|
D#|--2-----2-----2-----2-------|----------------------------|

D#|----------------------------|----------------------------|
A#|-----------5----------------|----------------------------|
F#|--6-----------------6-------|-----------4----------------|
C#|----------------------------|--6-----------------6-------|
G#|--4-----4-----4-----4-------|----------------------------|
D#|----------------------------|--4-----4-----4-----4-------|

D#|----------------------------|----------------------------|
A#|----------------------------|--5--------4----------------|
F#|----------------------------|--------------------6-------|
C#|--4--------2--------1-------|----------------------------|
G#|----------------------------|--4-----4-----4-----4-------|
D#|--2-----2-----2-----2-------|----------------------------|

D#|----------------------------|----------------------------|
A#|-----------5----------------|----------------------------|
F#|--6-----------------6-------|-----------4----------------|
C#|----------------------------|--6-----------------6-------|
G#|--4-----4-----4-----4-------|----------------------------|
D#|----------------------------|--4-----4-----4-----4-------|

D#|----------------------------|----------------------------|
A#|----------------------------|----------------------------|
F#|----------------------------|----------------------------|
C#|--4--------2--------1-------|----------------------------|
G#|----------------------------|--4-----4-----4-----4-------|
D#|--2-----2-----2-----2-------|----------------------------|

[Chorus 2]
                          |--tied-|
D#|-----------9-----------9L---|--9--------9----------------|
A#|-----------10----------10L--|--10-------10----------10---|
F#|-----------11----------11L--|--11-------11---------------|
C#|----------------------------|----------------------------|
G#|--9-------------------------|----------------------------|
D#|----------------------------|----------------------------|

                          |--tied-|
D#|-----------4-----------4L---|--4--------4-----4-----4----|
A#|-----------5-----------5L---|--5--------5-----5-----5----|
F#|-----------6-----------6L---|--6--------6-----6-----6----|
C#|----------------------------|----------------------------|
G#|--4-------------------------|--------------------4-------|
D#|----------------------------|----------------------------|

                          |--tied-|
D#|-----------9-----------9L---|--9-----12-9-----------9----|
A#|-----------10----------10L--|--10----10-10----------10---|
F#|-----------11----------11L--|--11----11-11----------11---|
C#|----------------------------|----------------------------|
G#|--9-------------------------|----------------------------|
D#|----------------------------|----------------------------|

                          |--tied-|
D#|-----------4-----------4L---|--4--------4-----4-----4----|
A#|-----------5-----------5L---|--5--------5-----5-----5----|
F#|-----------6-----------6L---|--6--------6-----6-----6----|
C#|----------------------------|----------------------------|
G#|--4-------------------------|--------------------4-------|
D#|----------------------------|----------------------------|

D#|-----------9----------------|--9--9--------12-11---------|
A#|-----------10---------------|--10-12-------10-10---------|
F#|-----------11---------------|--11-11-------11-11---------|
C#|----------------------------|----------------------------|
G#|--9-------------------------|----------------------------|
D#|----------------------------|----------------------------|

                          |--tied-|
D#|-----------4-----------4L---|--4--------4-----4-----4----|
A#|-----------5-----------5L---|--5--------5-----5-----5----|
F#|-----------6-----------6L---|--6--------6-----6-----6----|
C#|----------------------------|----------------------------|
G#|--4-------------------------|--------------------4-------|
D#|----------------------------|----------------------------|

                          |--tied-|
D#|-----------4-----------4L---|--4--------4-----------4----|
A#|-----------4-----------4L---|--4--------4-----------4----|
F#|-----------4-----------4L---|--4--------4-----------4----|
C#|-----------6-----------6L---|--6--------6-----------6----|
G#|-----------6-----------6L---|--6--------6-----------6----|
D#|--4L-------4----------------|----------------------------|

D#|----------------------------|----------------------------|
A#|----------------------------|----------------------------|
F#|----------------------------|----------------------------|
C#|--4----------------6--------|----------------------------|
G#|----------------------------|--7-----------6-------------|
D#|----------------------------|----------------------------|

[Bridge 1]
                     |--tied-|                       |--tied-|
D#|-------|-------|-------|-------|-------|-------|-------|-------|
A#|-------|-------|-------|-------|-------|-------|-------|-------|
F#|-------|-------|-------|-------|-------|-------|-------|-------|
C#|--6----|-------|-------|-------|--6----|-------|-------|-------|
G#|--4----|--6----|--4L---|--4----|--4----|--6----|--4L---|--4----|
D#|-------|--4----|--2L---|--2----|-------|--4----|--2L---|--2----|

[Bridge 2]

D#|----------------------------|----------------------------|
A#|-----------5----------------|----------------------------|
F#|--6-----------------6-------|-----------4----------------|
C#|----------------------------|--6-----------------6-------|
G#|--4-----4-----4-----4-------|----------------------------|
D#|----------------------------|--4-----4-----4-----4-------|

D#|----------------------------|----------------------------|
A#|----------------------------|----------------------------|
F#|-----------2----------------|-----------2----------------|
C#|--4-----------------4-------|--4-----------------4-------|
G#|----------------------------|----------------------------|
D#|--2-----2-----2-----2-------|--2-----2-----2-----2-------|

D#|----------------------------|----------------------------|
A#|-----------5----------------|----------------------------|
F#|--6-----------------6-------|-----------4----------------|
C#|----------------------------|--6-----------------6-------|
G#|--4-----4-----4-----4-------|----------------------------|
D#|----------------------------|--4-----4-----4-----4-------|

D#|----------------------------|----------------------------|
A#|----------------------------|----------------------------|
F#|-----------2----------------|-----------2----------------|
C#|--4-----------------4-------|--4-----------------4-------|
G#|----------------------------|----------------------------|
D#|--2-----2-----2-----2-------|--2-----2-----2-----2-------|

D#|----------------------------|
A#|----------------------------|
F#|----------------------------|
C#|--6-------------------------|
G#|--4-------------------------|
D#|----------------------------|
[Verse 3]

D#|----------------------------|----------------------------|
A#|-----------5----------------|----------------------------|
F#|--6-----------------6-------|-----------4----------------|
C#|----------------------------|--6-----------------6-------|
G#|--4-----4-----4-----4-------|----------------------------|
D#|----------------------------|--4-----4-----4-----4-------|

D#|----------------------------|----------------------------|
A#|----------------------------|--5--------4----------------|
F#|----------------------------|--------------------6-------|
C#|--4--------2--------1-------|----------------------------|
G#|----------------------------|--4-----4-----4-----4-------|
D#|--2-----2-----2-----2-------|----------------------------|

D#|----------------------------|----------------------------|
A#|-----------5----------------|----------------------------|
F#|--6-----------------6-------|-----------4----------------|
C#|----------------------------|--6-----------------6-------|
G#|--4-----4-----4-----4-------|----------------------------|
D#|----------------------------|--4-----4-----4-----4-------|

D#|----------------------------|----------------------------|
A#|----------------------------|----------------------------|
F#|----------------------------|----------------------------|
C#|--4--------2--------1-------|----------------------------|
G#|----------------------------|--4-----4-----4-----4-------|
D#|--2-----2-----2-----2-------|----------------------------|


D#|----------------------------|----------------------------|
A#|-----------5----------------|----------------------------|
F#|--6-----------------6-------|-----------4----------------|
C#|----------------------------|--6-----------------6-------|
G#|--4-----4-----4-----4-------|----------------------------|
D#|----------------------------|--4-----4-----4-----4-------|

D#|----------------------------|----------------------------|
A#|----------------------------|--5--------4----------------|
F#|----------------------------|--------------------6-------|
C#|--4--------2--------1-------|----------------------------|
G#|----------------------------|--4-----4-----4-----4-------|
D#|--2-----2-----2-----2-------|----------------------------|

D#|----------------------------|----------------------------|
A#|-----------5----------------|----------------------------|
F#|--6-----------------6-------|-----------4----------------|
C#|----------------------------|--6-----------------6-------|
G#|--4-----4-----4-----4-------|----------------------------|
D#|----------------------------|--4-----4-----4-----4-------|

D#|----------------------------|----------------------------|
A#|----------------------------|----------------------------|
F#|----------------------------|----------------------------|
C#|--4--------2--------1-------|----------------------------|
G#|----------------------------|--4-----4-----4-----4-------|
D#|--2-----2-----2-----2-------|----------------------------|

[Outro]

D#|----------------------------|----------------------------|
A#|----------------------------|----------------------------|
F#|----------------------------|----------------------------|
C#|--4----------------6--------|----------------------------|
G#|----------------------------|--7-----------6-------------|
D#|----------------------------|----------------------------|

D#|----------------------------||
A#|----------------------------||
F#|----------------------------||
C#|----------------------------||
G#|--4-------------------------||
D#|----------------------------||

            
Submit corrections

↑ Back to top | Tablatures and chords for acoustic guitar and electric guitar, ukulele, drums are parodies/interpretations of the original songs. You may use it for private study, scholarship, research or language learning purposes only