» » »

The Black Box Revelation - Gloria Tabs

Artists:  A B C D E F G H I J K L M N O P Q R S T U V W X Y Z # 

Gloria Tabs

(ver. 1) Click to play this song!
The Black Box Revelation
 Rating:
4.3/5 (25 votes)

 Gloria lessons Tabs too difficult? Try these video lessons and learn fast
 
                [Intro]

D#|--3p-0----------------------------------------------|
A#|-----------0h-3-----0L----0-------------------------|
F#|--------------------------------0L----0L----0-------|
C#|----------------------------------------------------|
G#|----------------------------------------------------|
D#|--3--3-----3--3-----3-----3-----3-----3-----3-------|


D#|--3p-0----------------------------------------------|
A#|-----------0h-3-----0L----0-------------------------|
F#|--------------------------------0L----0L----0-------|
C#|----------------------------------------------------|
G#|----------------------------------------------------|
D#|--3--3-----3--3-----3-----3-----3-----3-----3-------|


D#|--3p-0----------------------------------------------|
A#|-----------0h-3-----0L----0-------------------------|
F#|--------------------------------0L----0L----0-------|
C#|----------------------------------------------------|
G#|----------------------------------------------------|
D#|--3--3-----3--3-----3-----3-----3-----3-----3-------|


D#|--3p-0----------------------------------------------|
A#|-----------0h-3-----0L----0-------------------------|
F#|--------------------------------0L----0L----0-------|
C#|----------------------------------------------------|
G#|----------------------------------------------------|
D#|--3--3-----3--3-----3-----3-----3-----3-----3-------|


D#|--------------------------------------3-------------|
A#|--1-----------------1-----------------0-------------|
F#|-----------0-----------------0--------0-------------|
C#|----------------------------------------------------|
G#|--3L-------3--------3L-------3--------3-------------|
D#|----------------------------------------------------|


D#|--------------------------------------3-------------|
A#|--1-----------------1-----------------0-------------|
F#|-----------0-----------------0--------0-------------|
C#|----------------------------------------------------|
G#|--3L-------3--------3L-------3--------3-------------|
D#|----------------------------------------------------|

D#|--3p-0----------------------------------------------|
A#|-----------0h-3-----0L----0-------------------------|
F#|--------------------------------0L----0-------------|
C#|----------------------------------------------------|
G#|----------------------------------------------------|
D#|--3--3-----3--3-----3-----3-----3-----3-----3-------|


D#|--3p-0----------------------------------------------|
A#|-----------0h-3-----0L----0-------------------------|
F#|--------------------------------0L----0-------------|
C#|----------------------------------------------------|
G#|----------------------------------------------------|
D#|--3--3-----3--3-----3-----3-----3-----3-----3-------|

[Verse] X2

D#|--3p-0----------------------------------------------|
A#|-----------0h-3-----0L----0-------------------------|
F#|--------------------------------0L----0-------------|
C#|----------------------------------------------------|
G#|----------------------------------------------------|
D#|--3--3-----3--3-----3-----3-----3-----3-----3-------|


D#|--3p-0----------------------------------------------|
A#|-----------0h-3-----0L----0-------------------------|
F#|--------------------------------0L----0-------------|
C#|----------------------------------------------------|
G#|----------------------------------------------------|
D#|--3--3-----3--3-----3-----3-----3-----3-----3-------|


D#|--3p-0----------------------------------------------|
A#|-----------0h-3-----0L----0-------------------------|
F#|--------------------------------0L----0L----0-------|
C#|----------------------------------------------------|
G#|----------------------------------------------------|
D#|--3--3-----3--3-----3-----3-----3-----3-----3-------|


D#|--3p-0----------------------------------------------|
A#|-----------0h-3-----0L----0-------------------------|
F#|--------------------------------0L----0L----0-------|
C#|----------------------------------------------------|
G#|----------------------------------------------------|
D#|--3--3-----3--3-----3-----3-----3-----3-----3-------|


D#|----------------------------------------------------|
A#|--1-----------------1-----------------0-------------|
F#|-----------0-----------------0--------0-------------|
C#|----------------------------------------------------|
G#|--3L-------3--------3L-------3--------3-------------|
D#|----------------------------------------------------|


D#|----------------------------------------------------|
A#|--1-----------------1-----------------0-------------|
F#|-----------0-----------------0--------0-------------|
C#|----------------------------------------------------|
G#|--3L-------3--------3L-------3--------3-------------|
D#|----------------------------------------------------|


D#|--3p-0----------------------------------------------|
A#|-----------0h-3-----0L----0-------------------------|
F#|--------------------------------0L----0-------------|
C#|----------------------------------------------------|
G#|----------------------------------------------------|
D#|--3--3-----3--3-----3-----3-----3-----3-----3-------|


D#|--3p-0----------------------------------------------|
A#|-----------0h-3-----0L----0-------------------------|
F#|--------------------------------0L----0-------------|
C#|----------------------------------------------------|
G#|----------------------------------------------------|
D#|--3--3-----3--3-----3-----3-----3-----3-----3-------|

[Pre-Chorus]

D#|-----------0--------0--------------0--------0-------|
A#|----------------------------------------------------|
F#|----------------------------------------------------|
C#|--0-----------------------0-------------------------|
G#|----------------------------------------------------|
D#|----------------------------------------------------|


D#|-----------0--------0-------------------------------|
A#|--------------------------3-----------3-------------|
F#|--------------------------2-----------2-------------|
C#|--0-----------------------0-----------0-------------|
G#|----------------------------------------------------|
D#|----------------------------------------------------|


D#|--3--------3--3--------3----|--3----|
A#|--3--------3--3--------3----|--3----|
F#|--0--------0--0--------0----|--0----|
C#|--0--------0--0--------0----|--0----|
G#|--2--------2--2--------2----|--2----|
D#|--3--------3--3--------3----|--3----|

[Chorus]

D#|--------------------7L------|
A#|--------------------8L------|
F#|-----------9--------9L------|
C#|--------9-----9-------------|
G#|--7-------------------------|
D#|----------------------------|

D#|--7-------------------------|-----------3----------------|-------|
A#|--8-----------10-8----------|--------------0-------------|-------|
F#|--9-----9-----------9-------|--------0--------0----------|-------|
C#|-----------9-----------9----|----------------------------|-------|
G#|-----7----------------------|----------------------------|-------|
D#|----------------------------|-----3--------------3L------|--3----|


D#|--------------------7L------|--7-----------10-7----------|
A#|--------------------8L------|--8-----------------10-8----|
F#|-----------9--------9L------|--9-----9-------------------|
C#|--------9-----9-------------|-----------9----------------|
G#|--7-------------------------|-----7----------------------|
D#|----------------------------|----------------------------|


D#|-----------3----------------|-------|
A#|--------------0-------------|-------|
F#|--------0--------0----------|-------|
C#|----------------------------|-------|
G#|----------------------------|-------|
D#|-----3--------------3L------|--3----|

[Verse] 

D#|--3p-0----------------------------------------------|
A#|-----------0h-3-----0L----0-------------------------|
F#|--------------------------------0L----0-------------|
C#|----------------------------------------------------|
G#|----------------------------------------------------|
D#|--3--3-----3--3-----3-----3-----3-----3-----3-------|


D#|--3p-0----------------------------------------------|
A#|-----------0h-3-----0L----0-------------------------|
F#|--------------------------------0L----0-------------|
C#|----------------------------------------------------|
G#|----------------------------------------------------|
D#|--3--3-----3--3-----3-----3-----3-----3-----3-------|


D#|--3p-0----------------------------------------------|
A#|-----------0h-3-----0L----0-------------------------|
F#|--------------------------------0L----0L----0-------|
C#|----------------------------------------------------|
G#|----------------------------------------------------|
D#|--3--3-----3--3-----3-----3-----3-----3-----3-------|


D#|--3p-0----------------------------------------------|
A#|-----------0h-3-----0L----0-------------------------|
F#|--------------------------------0L----0L----0-------|
C#|----------------------------------------------------|
G#|----------------------------------------------------|
D#|--3--3-----3--3-----3-----3-----3-----3-----3-------|


D#|----------------------------------------------------|
A#|--1-----------------1-----------------0-------------|
F#|-----------0-----------------0--------0-------------|
C#|----------------------------------------------------|
G#|--3L-------3--------3L-------3--------3-------------|
D#|----------------------------------------------------|


D#|----------------------------------------------------|
A#|--1-----------------1-----------------0-------------|
F#|-----------0-----------------0--------0-------------|
C#|----------------------------------------------------|
G#|--3L-------3--------3L-------3--------3-------------|
D#|----------------------------------------------------|


D#|--3p-0----------------------------------------------|
A#|-----------0h-3-----0L----0-------------------------|
F#|--------------------------------0L----0-------------|
C#|----------------------------------------------------|
G#|----------------------------------------------------|
D#|--3--3-----3--3-----3-----3-----3-----3-----3-------|


D#|--3p-0----------------------------------------------|
A#|-----------0h-3-----0L----0-------------------------|
F#|--------------------------------0L----0-------------|
C#|----------------------------------------------------|
G#|----------------------------------------------------|
D#|--3--3-----3--3-----3-----3-----3-----3-----3-------|

[Pre-Chorus]

D#|-----------0--------0--------------0--------0-------|
A#|----------------------------------------------------|
F#|----------------------------------------------------|
C#|--0-----------------------0-------------------------|
G#|----------------------------------------------------|
D#|----------------------------------------------------|


D#|-----------0--------0-------------------------------|
A#|--------------------------3-----------3-------------|
F#|--------------------------2-----------2-------------|
C#|--0-----------------------0-----------0-------------|
G#|----------------------------------------------------|
D#|----------------------------------------------------|


D#|--3--------3--3--------3----|--3----|
A#|--3--------3--3--------3----|--3----|
F#|--0--------0--0--------0----|--0----|
C#|--0--------0--0--------0----|--0----|
G#|--2--------2--2--------2----|--2----|
D#|--3--------3--3--------3----|--3----|

[Chorus]

D#|--------------------7L------|
A#|--------------------8L------|
F#|-----------9--------9L------|
C#|--------9-----9-------------|
G#|--7-------------------------|
D#|----------------------------|

D#|--7-------------------------|-----------3----------------|-------|
A#|--8-----------10-8----------|--------------0-------------|-------|
F#|--9-----9-----------9-------|--------0--------0----------|-------|
C#|-----------9-----------9----|----------------------------|-------|
G#|-----7----------------------|----------------------------|-------|
D#|----------------------------|-----3--------------3L------|--3----|


D#|--------------------7L------|--7-----------10-7----------|
A#|--------------------8L------|--8-----------------10-8----|
F#|-----------9--------9L------|--9-----9-------------------|
C#|--------9-----9-------------|-----------9----------------|
G#|--7-------------------------|-----7----------------------|
D#|----------------------------|----------------------------|


D#|-----------3----------------|-------|--------------------7-------|
A#|--------------0-------------|-------|--------------------8-------|
F#|--------0--------0----------|-------|-----------9--------9L------|
C#|----------------------------|-------|--------9-----9-------------|
G#|----------------------------|-------|--7-------------------------|
D#|-----3--------------3L------|--3----|----------------------------|


D#|----------------------------|-----------3----------------|-------|
A#|--------------10-8----------|--------------0-------------|-------|
F#|--9-----9-----------9-------|--------0--------0----------|-------|
C#|-----------9-----------9----|----------------------------|-------|
G#|-----7----------------------|----------------------------|-------|
D#|----------------------------|-----3--------------3L------|--3----|


D#|--------------------7-------|--------------10-7----------|
A#|--------------------8-------|--------------------10-8----|
F#|-----------9--------9L------|--9-----9-------------------|
C#|--------9-----9-------------|-----------9----------------|
G#|--7-------------------------|-----7----------------------|
D#|----------------------------|----------------------------|


D#|-----------3----------------|----------------|
A#|--------------0-------------|----------------|
F#|--------0--------0----------|----------------|
C#|----------------------------|----------------|
G#|----------------------------|--------3--2----|
D#|-----3--------------3-------|--3-------------|

[Bridge]

D#|--------0--0--0L------------|
A#|--------1--1--1L------------|
F#|--2-----2--2--2L------------|
C#|--2-----2--2--2L------------|
G#|--0-----0--0--0L------------|
D#|----------------------------|


D#|--0L-0-----0--0--0-----0----|--0-----0--0--0L------------|
A#|--1L-1-----1--1--1-----1----|--0-----0--0--0L------------|
F#|--2L-2-----2--2--2-----2----|--0-----0--0--0L------------|
C#|--2L-2-----2--2--2-----2----|--2-----2--2--2L------------|
G#|--0L-0-----0--0--0-----0----|--2-----2--2--2L------------|
D#|----------------------------|--0-----0--0--0L------------|


D#|--0--------0----------------|--------0--0--0L------------|
A#|--0--------0----------------|--------1--1--1L------------|
F#|--0--------0----------------|--2-----2--2--2L------------|
C#|--2--------2----------------|--2-----2--2--2L------------|
G#|--2--------2-----0--3--2----|--0-----0--0--0L------------|
D#|--0--------0----------------|----------------------------|


D#|--0L-0-----0--0--0-----0----|--0-----0--0--0L------------|
A#|--1L-1-----1--1--1-----1----|--0-----0--0--0L------------|
F#|--2L-2-----2--2--2-----2----|--0-----0--0--0L------------|
C#|--2L-2-----2--2--2-----2----|--2-----2--2--2L------------|
G#|--0L-0-----0--0--0-----0----|--2-----2--2--2L------------|
D#|----------------------------|--0-----0--0--0L------------|


D#|--0--------0----------------|--------0--0--0L------------|
A#|--0--------0----------------|--------1--1--1L------------|
F#|--0--------0----------------|--2-----2--2--2L------------|
C#|--2--------2----------------|--2-----2--2--2L------------|
G#|--2--------2-----0--3--2----|--0-----0--0--0L------------|
D#|--0--------0----------------|----------------------------|


D#|--0L-0-----0--0--0-----0----|--0-----0--0--0L------------|
A#|--1L-1-----1--1--1-----1----|--0-----0--0--0L------------|
F#|--2L-2-----2--2--2-----2----|--0-----0--0--0L------------|
C#|--2L-2-----2--2--2-----2----|--2-----2--2--2L------------|
G#|--0L-0-----0--0--0-----0----|--2-----2--2--2L------------|
D#|----------------------------|--0-----0--0--0L------------|


D#|--0--------0----------------|--------0--0--0-----0--0----|--2-----------0----------|
A#|--0--------0----------------|--------1--1--1-----1--1----|--3-----------1----------|
F#|--0--------0----------------|--2-----2--2--2-----2--2----|--2-----------0----------|
C#|--2--------2----------------|--2-----2--2--2-----2--2----|--0----------------------|
G#|--2--------2-----0--3--2----|--0-----0--0--0-----0--0----|--------------3----------|
D#|--0--------0----------------|----------------------------|-------------------------|

[Instrumental]

D#|--3p-0----------------------------------------------|
A#|-----------0h-3-----0L----0-------------------------|
F#|--------------------------------0L----0L----0-------|
C#|----------------------------------------------------|
G#|----------------------------------------------------|
D#|--3--3-----3--3-----3-----3-----3-----3-----3-------|

D#|--3p-0----------------------------------------------|
A#|-----------0h-3-----0L----0-------------------------|
F#|--------------------------------0L----0L----0-------|
C#|----------------------------------------------------|
G#|----------------------------------------------------|
D#|--3--3-----3--3-----3-----3-----3-----3-----3-------|

D#|--3p-0----------------------------------------------|
A#|-----------0h-3-----0L----0-------------------------|
F#|--------------------------------0L----0L----0-------|
C#|----------------------------------------------------|
G#|----------------------------------------------------|
D#|--3--3-----3--3-----3-----3-----3-----3-----3-------|

D#|--3p-0----------------------------------------------|
A#|-----------0h-3-----0L----0-------------------------|
F#|--------------------------------0L----0L----0-------|
C#|----------------------------------------------------|
G#|----------------------------------------------------|
D#|--3--3-----3--3-----3-----3-----3-----3-----3-------|

[Verse]

D#|--3p-0----------------------------------------------|
A#|-----------0h-3-----0L----0-------------------------|
F#|--------------------------------0L----0-------------|
C#|----------------------------------------------------|
G#|----------------------------------------------------|
D#|--3--3-----3--3-----3-----3-----3-----3-----3-------|

D#|--3p-0----------------------------------------------|
A#|-----------0h-3-----0L----0-------------------------|
F#|--------------------------------0L----0-------------|
C#|----------------------------------------------------|
G#|----------------------------------------------------|
D#|--3--3-----3--3-----3-----3-----3-----3-----3-------|

D#|--3p-0----------------------------------------------|
A#|-----------0h-3-----0L----0-------------------------|
F#|--------------------------------0L----0L----0-------|
C#|----------------------------------------------------|
G#|----------------------------------------------------|
D#|--3--3-----3--3-----3-----3-----3-----3-----3-------|

D#|--3p-0----------------------------------------------|
A#|-----------0h-3-----0L----0-------------------------|
F#|--------------------------------0L----0L----0-------|
C#|----------------------------------------------------|
G#|----------------------------------------------------|
D#|--3--3-----3--3-----3-----3-----3-----3-----3-------|

D#|----------------------------------------------------|
A#|--1-----------------1-----------------0-------------|
F#|-----------0-----------------0--------0-------------|
C#|----------------------------------------------------|
G#|--3L-------3--------3L-------3--------3-------------|
D#|----------------------------------------------------|

D#|----------------------------------------------------|
A#|--1-----------------1-----------------0-------------|
F#|-----------0-----------------0--------0-------------|
C#|----------------------------------------------------|
G#|--3L-------3--------3L-------3--------3-------------|
D#|----------------------------------------------------|

D#|--3p-0----------------------------------------------|
A#|-----------0h-3-----0L----0-------------------------|
F#|--------------------------------0L----0-------------|
C#|----------------------------------------------------|
G#|----------------------------------------------------|
D#|--3--3-----3--3-----3-----3-----3-----3-----3-------|


D#|--3p-0----------------------------------------------|
A#|-----------0h-3-----0L----0-------------------------|
F#|--------------------------------0L----0-------------|
C#|----------------------------------------------------|
G#|----------------------------------------------------|
D#|--3--3-----3--3-----3-----3-----3-----3-----3-------|

[Outro]

D#|-----------0--------0--------------0--------0-------|
A#|----------------------------------------------------|
F#|----------------------------------------------------|
C#|--0-----------------------0-------------------------|
G#|----------------------------------------------------|
D#|----------------------------------------------------|


D#|-----------0--------0-------------------------------|
A#|--------------------------3-----------3-------------|
F#|--------------------------2-----------2-------------|
C#|--0-----------------------0-----------0-------------|
G#|----------------------------------------------------|
D#|----------------------------------------------------|


D#|--3--------3--3--------3----|--3--------3--3--------3----|
A#|--3--------3--3--------3----|--3--------3--3--------3----|
F#|--0--------0--0--------0----|--0--------0--0--------0----|
C#|--0--------0--0--------0----|--0--------0--0--------0----|
G#|--2--------2--2--------2----|--2--------2--2--------2----|
D#|--3--------3--3--------3----|--3--------3--3--------3----|


D#|-----------0--------0--------------0--------0-------|
A#|----------------------------------------------------|
F#|----------------------------------------------------|
C#|--0-----------------------0-------------------------|
G#|----------------------------------------------------|
D#|----------------------------------------------------|


D#|-----------0--------0-------------------------------|--3L---|--3----||
A#|--------------------------3-----------3-------------|--3L---|--3----||
F#|--------------------------2-----------2-------------|--0L---|--0----||
C#|--0-----------------------0-----------0-------------|--0L---|--0----||
G#|----------------------------------------------------|--2L---|--2----||
D#|----------------------------------------------------|--3L---|--3----||            
Submit corrections


        Gloria lessons Hard to play? Try these video lessons and learn fast Gloria lessons
        
↑ Back to top | Tablatures and chords for acoustic guitar and electric guitar, ukulele, drums are parodies/interpretations of the original songs. You may use it for private study, scholarship, research or language learning purposes only