» » »

The Backyardigans - Crusin The Dunes Tabs

Artists:  A B C D E F G H I J K L M N O P Q R S T U V W X Y Z # 

Crusin The Dunes Tabs

(ver. 1) Click to play this song!
The Backyardigans
 Rating:
4.3/5 (27 votes)

 Crusin The Dunes lessons Tabs too difficult? Try these video lessons and learn fast
 
                e|---5--5----5---8--8--8---5--5--5--5---0---5--5--5--5--5---0----5---8--8--8-|
B|--------------------------------------0-------------------0----------------|
G|---------------------------------------------------------------------------|
D|---------------------------------------------------------------------------|
A|---------------------------------------------------------------------------|
E|---------------------------------------------------------------------------|

e|---5--5--5---0---5--5--5--5--5---0-----5--8--8--8--5--8--8--8---5--8--8--8-|
B|-------------0-------------------0-----------------------------------------|
G|---------------------------------------------------------------------------|
D|---------------------------------------------------------------------------|
A|---------------------------------------------------------------------------|
E|---------------------------------------------------------------------------|

e|---5--3--3--0-----------8--8---8--8--8--5---8--8---8--8--8--5---8--8--5--8-|
B|---------------3--1--------------------------------------------------------|
G|---------------------------------------------------------------------------|
D|---------------------------------------------------------------------------|
A|---------------------------------------------------------------------------|
E|---------------------------------------------------------------------------|

e|---8--5--8--8--5---8--8---8--8--8--5----8--8--8--8--8--5---8--8--8--8--5---|
B|---------------------------------------------------------------------------|
G|---------------------------------------------------------------------------|
D|---------------------------------------------------------------------------|
A|---------------------------------------------------------------------------|
E|---------------------------------------------------------------------------|

e|---8--7--7--5--3--3--0--0----------------5--8--8--8--5--5--5--5--0---5--5--|
B|---------------------------3--1----------------------------------0---------|
G|---------------------------------------------------------------------------|
D|---------------------------------------------------------------------------|
A|---------------------------------------------------------------------------|
E|---------------------------------------------------------------------------|

e|---5--5--5---0---5--5--12--12--10--8--5--5--8--8--5---8--8---8--8--8--5----|
B|-------------0-------------------------------------------------------------|
G|---------------------------------------------------------------------------|
D|---------------------------------------------------------------------------|
A|---------------------------------------------------------------------------|
E|---------------------------------------------------------------------------|

e|---5--8--8--8---8--8--5--8--8--8--5--8--8--7--7--5--3--0--0-----------8--8-|
B|-------------------------------------------------------------3--3--1-------|
G|---------------------------------------------------------------------------|
D|---------------------------------------------------------------------------|
A|---------------------------------------------------------------------------|
E|---------------------------------------------------------------------------|

e|---8--8--8--5---8--8---8--8--8--5---8--8--5--8--8--5--8--8--5---8--8---8--8|
B|---------------------------------------------------------------------------|
G|---------------------------------------------------------------------------|
D|---------------------------------------------------------------------------|
A|---------------------------------------------------------------------------|
E|---------------------------------------------------------------------------|

e|---8--5---8--8--8--8--8--5--8--8--8--8--5--8--7--7--5--3--0--0-------------|
B|----------------------------------------------------------------3--3--1----|
G|---------------------------------------------------------------------------|
D|---------------------------------------------------------------------------|
A|---------------------------------------------------------------------------|
E|---------------------------------------------------------------------------|

e|---5--3--5---5-------------------------------------------------------------------|
B|---------------------------------------------------------------------------------|
G|---------------------------------------------------------------------------------|
D|---------------------------------------------------------------------------------|
A|---------------------------------------------------------------------------------|
E|---------------------------------------------------------------------------------|

This last part of the song is when Pablo Tirone and Uniqa are all in Pablos DUNE BUGGY and are chasing the
life guard that is drivin' down the beach.

e|---5--5---8--8--8--5--5--5--5--5---0---5--5---5--5--5--0---5--12--10--10--8|
B|-----------------------------------0-------------------0-------------------|
G|---------------------------------------------------------------------------|
D|---------------------------------------------------------------------------|
A|---------------------------------------------------------------------------|
E|---------------------------------------------------------------------------|

e|---5--5--8--8--5---8--8---8--8--8--5---5--8--8--8--8--5--8--8--8--5--8--8--|
B|---------------------------------------------------------------------------|
G|---------------------------------------------------------------------------|
D|---------------------------------------------------------------------------|
A|---------------------------------------------------------------------------|
E|---------------------------------------------------------------------------|

e|---5--5--3--3--0--------------8--8---8--8--8--5---8--8---8--8--8--5---8--8-|
B|------------------3--3--1--------------------------------------------------|
G|---------------------------------------------------------------------------|
D|---------------------------------------------------------------------------|
A|---------------------------------------------------------------------------|
E|---------------------------------------------------------------------------|

e|---5--8--8--5--8--8---5---8--8---8--8--8--5---8--8--8--8--8--5--8--8--8--8-|
B|---------------------------------------------------------------------------|
G|---------------------------------------------------------------------------|
D|---------------------------------------------------------------------------|
A|---------------------------------------------------------------------------|
E|---------------------------------------------------------------------------|

e|---5----8--7--7--5--3--3--0--0--------------5--3--5---5--------------------|
B|--------------------------------3--1---------------------------------------|
G|---------------------------------------------------------------------------|
D|---------------------------------------------------------------------------|
A|---------------------------------------------------------------------------|
E|---------------------------------------------------------------------------|
            
Submit corrections


        Crusin The Dunes lessons Hard to play? Try these video lessons and learn fast Crusin The Dunes lessons
        
↑ Back to top | Tablatures and chords for acoustic guitar and electric guitar, ukulele, drums are parodies/interpretations of the original songs. You may use it for private study, scholarship, research or language learning purposes only