» » »

The Avett Brothers - Signs Tabs

Artists:  A B C D E F G H I J K L M N O P Q R S T U V W X Y Z # 

Signs Tabs

(ver. 1) Click to play this song!
The Avett Brothers
 Rating:
4/5 (4 votes)

 Signs lessons Tabs too difficult? Try these video lessons and learn fast
 
                

--------------------------------------7------------------------------5-------|
--0--1/3-3--3h5p3-0--3h5p3-0-3/7----------12*----------3-0-3h5-3--0------12*-|
--0--2/4-4-------------------------7-------------0-2/4-----------------------|
------------------------------------------12*----------------------------12*-|

----------------------0-2-3-0-3-5-0-5-7-0-7-8-0-8-10-10/12--10-8-8h10-8------|
--------------0-1-3----------------------------------------------------------|
--------0-2-4----------------------------------------------------------------|
--0-2-4----------------------------------------------------------------------|

--5h7p5-5-7-5-3-3-5-5/7-5-3-----------------10-----7----7----7----7----7-----|
--------------------------------10h12p10-------------8----8----8----8----8---|
-----------------------------------------12------------7----7----7----7----7-|

--7----7----12----12----12----12----12----12----12----12--------12-10-7/10---|
----8----8----13----13----13----13----13----13----13----13-------------------|
------7----7----12----12----12----12----12----12----12----12-----------------|

----------------------------------------------5--7--5-3---8-8-8-7-5-5/7------|
---------8-8/10—8-10-8-10/12-8----5---6-6/8----------------------------------|
--9/11-7-----------------------9----5---------5--7--5-4---9-9-9-7-5-5/7------|

--0-3-2-0--------------------3-----------------------------------------------|
----------3-1-0---0----------3-----------------------------------------------|
----------------2---2-0---4--0-----------------------------------------------|
------------------------0----0-----------------------------------------------|
-----------------------------2-----------------------------------------------|
-----------------------------3-----------------------------------------------|
            
Submit corrections


        Signs lessons Hard to play? Try these video lessons and learn fast Signs lessons
        
↑ Back to top | Tablatures and chords for acoustic guitar and electric guitar, ukulele, drums are parodies/interpretations of the original songs. You may use it for private study, scholarship, research or language learning purposes only