» » »

The Avett Brothers - Murder In The City Acoustic Tabs

Artists:  A B C D E F G H I J K L M N O P Q R S T U V W X Y Z # 

Murder In The City Acoustic Tabs

(ver. 1) Click to play this song!
The Avett Brothers
 Rating:
4.3/5 (29 votes)

 Murder In The City Acoustic lessons Tabs too difficult? Try these video lessons and learn fast
 
                [Intro]
      C      Em        Am        G         F         G         C
e|--------0---------0---------0---------3---------1---------3---------0---------|
B|-----1--------0---------1---------0---------1---------0---------1------1---1--|
G|------0---------0---------2---------0---------2---------0---------0------0----|
D|------------------------------------------3-----------------------------------|
A|--3--------2---------0---------------------------------------3----------------|
E|-------------------------------3-------------------3--------------------------| 2x 


[Verse]
      C      Em        Am        G         F         G         C
e|--------0---------0---------0---------3---------1---------3---------0---------|
B|-----1--------0---------1---------0---------1---------0---------1------1---1--|
G|------0---------0---------2---------0---------2---------0---------0------0----|
D|------------------------------------------3-----------------------------------|
A|--3--------2---------0---------------------------------------3----------------|
E|-------------------------------3-------------------3--------------------------|

      C      Em        Am        G         F         G         C
e|--------0---------0---------0---------3---------1---------3---------0---------|
B|-----1--------0---------1---------0---------1---------0---------1------1---1--|
G|------0---------0---------2---------0---------2---------0---------0------0----|
D|------------------------------------------3-----------------------------------|
A|--3--------2---------0---------------------------------------3----------------|
E|-------------------------------3-------------------3--------------------------|

[Chorus]

    Am      G       C               Am      G       C
e|--------0-------3-------0---------------0-------3-------0--------|
B|----1-------0-------1------1---1----1-------0-------1------1---1-|
G|------2-------0-------0------0--------2-------0-------0------0---|
D|-----------------------------------------------------------------|
A|--0---------------3---------------0---------------3--------------|
E|----------3-------------------------------3----------------------|
    Am      G       F       C       Am      G
e|--------0-------3-------1-------0-------0-------3-|
B|----1-------0-------1-------1-------1-------0-----|
G|------2-------0-------2-------0-------2-------0---|
D|------------------3-------------------------------|
A|--0-----------------------3-------0---------------|
E|----------3-------------------------------3-------|

[Verse]
      C      Em        Am        G         F         G         C
e|--------0---------0---------0---------3---------1---------3---------0---------|
B|-----1--------0---------1---------0---------1---------0---------1------1---1--|
G|------0---------0---------2---------0---------2---------0---------0------0----|
D|------------------------------------------3-----------------------------------|
A|--3--------2---------0---------------------------------------3----------------|
E|-------------------------------3-------------------3--------------------------|

      C      Em        Am        G         F         G         C
e|--------0---------0---------0---------3---------1---------3---------0---------|
B|-----1--------0---------1---------0---------1---------0---------1------1---1--|
G|------0---------0---------2---------0---------2---------0---------0------0----|
D|------------------------------------------3-----------------------------------|
A|--3--------2---------0---------------------------------------3----------------|
E|-------------------------------3-------------------3--------------------------|

      C      Em        Am        G         F         G         C
e|--------0---------0---------0---------3---------1---------3---------0---------|
B|-----1--------0---------1---------0---------1---------0---------1------1---1--|
G|------0---------0---------2---------0---------2---------0---------0------0----|
D|------------------------------------------3-----------------------------------|
A|--3--------2---------0---------------------------------------3----------------|
E|-------------------------------3-------------------3--------------------------|

      C      Em        Am        G         F         G         C
e|--------0---------0---------0---------3---------1---------3---------0---------|
B|-----1--------0---------1---------0---------1---------0---------1------1---1--|
G|------0---------0---------2---------0---------2---------0---------0------0----|
D|------------------------------------------3-----------------------------------|
A|--3--------2---------0---------------------------------------3----------------|
E|-------------------------------3-------------------3--------------------------|

[Chorus]

    Am      G       C               Am      G       C
e|--------0-------3-------0---------------0-------3-------0--------|
B|----1-------0-------1------1---1----1-------0-------1------1---1-|
G|------2-------0-------0------0--------2-------0-------0------0---|
D|-----------------------------------------------------------------|
A|--0---------------3---------------0---------------3--------------|
E|----------3-------------------------------3----------------------|
    Am      G       F       C       Am      G
e|--------0-------3-------1-------0-------0-------3-|
B|----1-------0-------1-------1-------1-------0-----|
G|------2-------0-------2-------0-------2-------0---|
D|------------------3-------------------------------|
A|--0-----------------------3-------0---------------|
E|----------3-------------------------------3-------|

[Verse]
      C      Em        Am        G         F         G         C
e|--------0---------0---------0---------3---------1---------3---------0---------|
B|-----1--------0---------1---------0---------1---------0---------1------1---1--|
G|------0---------0---------2---------0---------2---------0---------0------0----|
D|------------------------------------------3-----------------------------------|
A|--3--------2---------0---------------------------------------3----------------|
E|-------------------------------3-------------------3--------------------------|

      C      Em        Am        G         F         G         C
e|--------0---------0---------0---------3---------1---------3---------0---------|
B|-----1--------0---------1---------0---------1---------0---------1------1---1--|
G|------0---------0---------2---------0---------2---------0---------0------0----|
D|------------------------------------------3-----------------------------------|
A|--3--------2---------0---------------------------------------3----------------|
E|-------------------------------3-------------------3--------------------------|

      C      Em        Am        G         F         G         C
e|--------0---------0---------0---------3---------1---------3---------0---------|
B|-----1--------0---------1---------0---------1---------0---------1------1---1--|
G|------0---------0---------2---------0---------2---------0---------0------0----|
D|------------------------------------------3-----------------------------------|
A|--3--------2---------0---------------------------------------3----------------|
E|-------------------------------3-------------------3--------------------------|

      C      Em        Am        G         F         G         C
e|--------0---------0---------0---------3---------1---------3---------0---------|
B|-----1--------0---------1---------0---------1---------0---------1------1---1--|
G|------0---------0---------2---------0---------2---------0---------0------0----|
D|------------------------------------------3-----------------------------------|
A|--3--------2---------0---------------------------------------3----------------|
E|-------------------------------3-------------------3--------------------------|

[Chorus]

    Am      G       C               Am      G       C
e|--------0-------3-------0---------------0-------3-------0--------|
B|----1-------0-------1------1---1----1-------0-------1------1---1-|
G|------2-------0-------0------0--------2-------0-------0------0---|
D|-----------------------------------------------------------------|
A|--0---------------3---------------0---------------3--------------|
E|----------3-------------------------------3----------------------|
    Am      G       F       C       Am      G
e|--------0-------3-------1-------0-------0-------3-|
B|----1-------0-------1-------1-------1-------0-----|
G|------2-------0-------2-------0-------2-------0---|
D|------------------3-------------------------------|
A|--0-----------------------3-------0---------------|
E|----------3-------------------------------3-------|

[Outro]

      C      Em        Am        G         F         G         C
e|--------0---------0---------0---------3---------1---------3---------0---------|
B|-----1--------0---------1---------0---------1---------0---------1------1---1--|
G|------0---------0---------2---------0---------2---------0---------0------0----|
D|------------------------------------------3-----------------------------------|
A|--3--------2---------0---------------------------------------3----------------|
E|-------------------------------3-------------------3--------------------------| 2x

            
Submit corrections


        Murder In The City Acoustic lessons Hard to play? Try these video lessons and learn fast Murder In The City Acoustic lessons
        
↑ Back to top | Tablatures and chords for acoustic guitar and electric guitar, ukulele, drums are parodies/interpretations of the original songs. You may use it for private study, scholarship, research or language learning purposes only