» » »

The Avett Brothers - If Its The Beaches Tabs

Artists:  A B C D E F G H I J K L M N O P Q R S T U V W X Y Z # 

If Its The Beaches Tabs

(ver. 1) Click to play this song!
The Avett Brothers
 Rating:
4.3/5 (26 votes)

 If Its The Beaches  lessons Tabs too difficult? Try these video lessons and learn fast
 
                CAPO: 5
All chords and notes relative to capo

Csus4: X33010

[Intro]
C Csus4 C Am F C  Csus4  C  Csus4  C Csus4 C

[Optional]
Right before the Am, pick the B note on the G-String (use your pinky XXX4XX)and again but the open B string
(XXXX0X) right before the F Chord
Between the F and C:
e|--------|
B|--0-1---|
G|------0-|
D|--------|
A|--------|
E|--------|

              
               C
Don't say it's over
                Am 
Cause that's the worst news I 
      F                 C
could hear I swear that I will 
      Am
Do my best to be here 
F                C
just the way you like it
    Am                  F
Even though its hard to hide
        C             F
Push my feelings all aside
       C             F
I will rearrange my plans and 
           C
change for you


C Csus4 C Am F C  Csus4  C 

[Optional intro notes apply here as well]

           C
If I could go back 
           Am                  F
That's the first thing I would do 
             C
I swear that I would
      Am             F
Do my best to follow through
        C            F
Come up with a master plan
          C              F
A homerun hit, a winning stand
        C             F
A gaurantee and not a promise
          C              F
That I'll never let your love 
             C
slip from my hands


[Solo] (Second guitar plays Am G F Fm (2x))

e|-----------------------------------------------------------------------------------------------1--|
B|------1-0-------------------------------------------------------------------------------------1---|
G|-----2------0-4-2-0-----2-1~-------------------0h2-4-5-4~--0-2-4-5-4-2-4-2h4p2-4----4-2-1~---1----|
D|----2-----2---------3~-------------------0h2h3-----------------------------------33~--------------|
A|-0----------------------------3-2-0-0h2h3---------------------------------------------------------|
E|--------------------------------------------------------------------------------------------------|

Am  G  F  Fm 
Am  G  F

[Bridge]
e|-----------------------------------------|
B|---1-------------------------------------|
G|-2-------2-----2-----4-----2-----4----2--|
D|-------3-----3---3/5-----3---3/5-----3---|
A|-----------------------------------------|
E|-----------------------------------------|
(Optional: can play Fm instead of bridge and go straight into the chords below)


C Csus4 C Am F C  Csus4  C 

[Optional intro notes apply here as well]

            C
If it's the beaches 
            Am                 F
If it's the beaches' sands you want
              C
Then you will have them
           Am                  F
If it's the mountains' bending rivers
              C
Then you will have them
           Am           F
If it's the wish to run away 
            C
Then I will grant it
         Am              F
Take whatever you think of
        C             F
While I go gas up the truck
         C               F
Pack the old love letters up
        C          
We will read them when
   F                  C 
we forget why we left here


Am  G  F  Fm
Am  G  F

(Same as bridge minus last two notes)
e|-----------------------------------|
B|---1-------------------------------|
G|-2-------2-----2-----4-----2-----4-|
D|-------3-----3---3/5-----3---3/5---|
A|-----------------------------------|
E|-----------------------------------|
(Optional: can play Fm instead of notes and go straight into C)

End on C

Feedback welcome! I'm bound to have missed some stuff or have better ways of formatting/labeling.            
Submit corrections


        If Its The Beaches  lessons Hard to play? Try these video lessons and learn fast If Its The Beaches  lessons
        
↑ Back to top | Tablatures and chords for acoustic guitar and electric guitar, ukulele, drums are parodies/interpretations of the original songs. You may use it for private study, scholarship, research or language learning purposes only