Home » T » The Audition »

The Audition - You've Made Us Conscious Tabs

Artists:  A B C D E F G H I J K L M N O P Q R S T U V W X Y Z # 

You've Made Us Conscious Tabs

(ver. 1) Click to play this song!
The Audition
Remember to tune all your strings half a step, or half a tone down from Standard.

Intro/Chorus (Lead) x 4 (x 8 for Chorus)

Eb---------------------------------|
Bb-------------------33------------|
Gb-------55-44-00-00----44-55------|
Db----22---------------------------|
Ab---------------------------------|
Eb---------------------------------|

Intro/Chorus (Rhythm) x 2 (x 4 for Chorus)

Eb---------------------------------------|
Bb---------------------------------------|
Gb---------------------------------------|
Db--55555555-77777777-333333333333333333-|
Ab--55555555-77777777-333333333333333333-|
Eb--33333333-55555555-111111111111111111-|

Verse (Lead) x 1

Eb-----------------|------------------|
Bb-----------------|8-8-8-8-8-8-8-8---|
Gb-7777777777777777|------------------|
Db-----------------|5-5-5-5-5-5-5-5---|
Ab-----------------|------------------|
Eb-----------------|------------------|
   xxxxxxxxxxxxxxxx

Verse (Rhythm) x 4 (Lead moves on to the other side of the line after x 2)

Eb-------------------------------|
Bb-------------------------------|
Gb-------------------------------|
Db-33-33--55-55----22-22--33-33--|
Ab-33-33--55-55----22-22--33-33--|
Eb-11-11--33-33----00-00--11-11--|

Bridge (Lead) x 1

Eb-----------------
Bb-888888888888888-
Gb-----------------
Db-555555555555555-
Ab-----------------|
Eb-----------------|

Chorus

Verse

Bridge

Chorus

Bridge 2 (Lead) (Played softly and quietly) x 24

Eb------------------|
Bb------------------|
Gb-----4h5hp4-------|
Db------------5-----|
Ab------------------|
Eb------------------|

Bridge 2 (Rhythm) - Play the Chorus rhythm, palmmuted, softly and quietly, in half time, 
each note twice as much) x 3

Bridge x 2

Chorus

Outro (Rhythm) x 1

Eb--------------|
Bb--------------|
Gb--------------|
Db-55-55-22-33~-|
Ab-55-55-22-33~-|
Eb-33-33-00-11~-|

I've spent an hour or so working this out. It's a relatively simple song to play, good 
beginners, so I hope you all enjoy it. Rate please.
            
Submit corrections

↑ Back to top | Tablatures and chords for acoustic guitar and electric guitar, ukulele, drums are parodies/interpretations of the original songs. You may use it for private study, scholarship, research or language learning purposes only