» » »

The Almost - Want To Tabs

Artists:  A B C D E F G H I J K L M N O P Q R S T U V W X Y Z # 

Want To Tabs

(ver. 2) Click to play this song!
The Almost
 Rating:
4/5 (4 votes)

 Want To lessons Tabs too difficult? Try these video lessons and learn fast
 
                
Intro/Chorus
Guitar 1
e|--0/0-0-0-0--5-----|--0-0-0--0--|
b|--2/5-7-5-2-7-7p5--|--2-5-7-10--|
g|-----------------6-|------------|
d|-------------------|------------|
a|-------------------|------------|
d|-------------------|------------|
 (2x)

Guitar 2
* the e & b strings can be played open
e|--------------------------------------------------|
b|--------------------------------------------------|
g|--2222-22-22-2222-22-22-2222-22-22-2222-22-22-----|
d|--4444-44-44-4444-44-44-2222-22-22-1111-11-11-----|
a|--4444-44-44-4444-44-44-0000-00-00-0000-00-00-----|
d|--4444-44-44-4444-44-44---------------------------|
or 
e|--------------------------------------------------|
b|--------------------------------------------------|
g|--------------------------------------------------|
d|--4444-44-44-4444-44-44-7777-77-77-7777-77-77-----|
a|--4444-44-44-4444-44-44-7777-77-77-6666-66-66-----|
d|--4444-44-44-4444-44-44-7777-77-77-7777-77-77-----|

Verse
Guitar 1
e|------------------------------|-----------------------------|
b|------------------------------|-----------------------------|
g|------------------------------|-----------------------------|
d|--444444-555555-222222-999999-|-444444-555555-222222-777777-|
a|--444444-555555-222222-999999-|-444444-555555-222222-666666-|
d|--444444-555555-222222-999999-|-444444-555555-222222-777777-|
PM
Guitar 2
e|--------------|--------------|
b|--------------|--------------|
g|--2~-2~-4~-4~-|--2~-2~-4~-2~-|
d|--4~-2~-2~-4~-|--4~-2~-2~-1~-|
a|--4~-0~-2~-2~-|--4~-0~-2~-2~-|
d|--4~----2~----|--4~----2~----|

Chorus

Before Verse 2
e|---------------|
b|---------------|
g|--------4~-----|
d|--4~-2~-4~-2~--|
a|--4~-2~-2~-2~--|
d|--4~-2~----2~--|

Verse 2
*mainly feedback

Guitar 1
e|--0/0 0 0 0 0 00  0---|
b|--2/5b5b5b5b5b44b-7b--|
g|----------------------|
d|----------------------|
a|----------------------|
d|----------------------|

Guitar 2
e|----------------|
b|----------------|
g|---------22-222-|
d|--44-444-11-111-|
a|--44-444-00-000-|
d|--44-444--------|

Chorus

Bridge
Guitar 1
e|------------------|---------------------------|
b|------------------|---------------------------|
g|------------------|-------6/8998-------6/8998-|
d|--44-22-7777-7777-|-44-22-x/xxxx-44-22-x/xxxx-|
a|--44-22-6666-6666-|-44-22-4/6776-44-22-4/6776-|
d|--44-22-7777-7777-|-44-22--------44-22--------|
  (2x)

Guitar 2
e|-------------------|
b|-------------------|
g|--------2222-2222--|
d|--44-22-1111-1111--|
a|--44-22-0000-0000--|
d|--44-22------------|

Interlude
e|-----------------------------------|
b|-----------------------------------|
g|--22-2222-22-22-22-2222-22-22------|
d|--44-4444-44-44-44-4444-44-44------|
a|--44-4444-44-44-44-4444-44-44------|
d|--44-4444-44-44-44-4444-44-44------|

Breakdown
Guitar 1
e|--0/00-0/00/0-0/ 0-0/0-00-0/0--------|
b|--5/77-5/22/5-7/10-7/5-22-5/7--------|
g|-------------------------------------|
d|-------------------------------------|
a|-------------------------------------|
d|-------------------------------------|

Guitar 2
e|-----------------------------------|
b|-----------------------------------|
g|--22-2222-22-22-22-2222-22-22------|
d|--44-4444-44-44-44-4444-44-44------|
a|--44-4444-44-44-44-4444-44-44------|
d|--44-4444-44-44-44-4444-44-44------|
            
Submit corrections


        Want To lessons Hard to play? Try these video lessons and learn fast Want To lessons
        
↑ Back to top | Tablatures and chords for acoustic guitar and electric guitar, ukulele, drums are parodies/interpretations of the original songs. You may use it for private study, scholarship, research or language learning purposes only