» » »

The Almost - Amazing Because It Is Tabs

Artists:  A B C D E F G H I J K L M N O P Q R S T U V W X Y Z # 

Amazing Because It Is Tabs

(ver. 3) Click to play this song!
The Almost
 Rating:
3.3/5 (13 votes)

 Amazing Because It Is lessons Tabs too difficult? Try these video lessons and learn fast
 
                Band: The Almost

If you have any questions, comments, or corrections...


Standard Tuning

Intro
00:00-01:04
I was so scared of everything you put in front of me
I've been marching to every part of me Just to see... See Why you need me to be...The boy you need me to be
e|-0-----------------------------------------|
B|-0-----------------------------------------|
G|-9-----------------------------------------|
D|-9-----------------------------------------| Figure out strumming.
A|-7-----------------------------------------|
E|-9-----------------------------------------|


01:05-01:29
Amazing grace. How sweet the sound. That saves a wretch like me
I once was lost. And now I'm found. Was blind but now I see
e|-0-----0-----0-----0----------------------------|
B|-0-----0-----0-----5----------------------------|
G|-1-----4-----6-----6----------------------------|
D|-2-----4-----6-----6----------------------------| Figure out strumming.
A|-2-----2-----4-----0----------------------------|
E|-0-----x-----x-----0----------------------------|



01:30-02:34
I just wanna see. I'm the type of person who lets fear drive
I'm the type of guy that's in drive. Cause I'm addicted. I'm needy.
I'm lost without you. I need you. I need you
e|-0-----------------------------------------|
B|-0-----------------------------------------|
G|-9-----------------------------------------|
D|-9-----------------------------------------| Figure out strumming.
A|-7-----------------------------------------|
E|-9-----------------------------------------|


02:35-02:59(With Choir)
Amazing grace. How sweet the sound. That saves a wretch like me
I once was lost. But now I'm found. Was blind but now I see
e|-0-----0-----0-----0----------------------------|
B|-0-----0-----0-----5----------------------------|
G|-1-----4-----6-----6----------------------------|
D|-2-----4-----6-----6----------------------------| Figure out strumming.
A|-2-----2-----4-----0----------------------------|
E|-0-----x-----x-----0----------------------------|


03:00-04:24(With Choir)
Amazing grace (amazing grace). How sweet the sound (how sweet)
That saves a wretch like me (that saved a wretch like me)
I once was lost. But now I'm found (you know I'm found)
Was blind but now I see
e|-0-----0-----0-----0----------------------------|
B|-0-----0-----0-----5----------------------------| x2 
G|-1-----4-----6-----6----------------------------|
D|-2-----4-----6-----6----------------------------| Figure out strumming.
A|-2-----2-----4-----0----------------------------| (different than earlier 
E|-0-----x-----x-----0----------------------------|  strumming)


There you go...
im pretty sure its correct...
questions, comments, corrections, critisim...

thanks...

peace.
            
Submit corrections


        Amazing Because It Is lessons Hard to play? Try these video lessons and learn fast Amazing Because It Is lessons
        
↑ Back to top | Tablatures and chords for acoustic guitar and electric guitar, ukulele, drums are parodies/interpretations of the original songs. You may use it for private study, scholarship, research or language learning purposes only